Song name
# A B C D E F G H I J K L M N O P Q R S T U V W X Y Z

Dear Whoever - A Place For The End tab

-------------------------------------------------------------------------------
                             SONG NAME - Band Name
-------------------------------------------------------------------------------
Tabbed by:shagar
E-mail:shaungarnett@hotmail.co.uk

Tuning:HALF STEP DOWN (Eb G# Db F# Bb Eb)

the chords ar the same throughout the whole song, but played with different 
strumming patterns and intermitent palm muting, but its hard to tab out so use your ears 
like i did, its not too hard. 

e|---------------------------------------------------------------------------|
B|-----2-2h3~--------------2h3~---------------12*-------3-2~-----------------|
G|----------------2------------------2--2-----12*----------------------------|
D|---4----------0--------4---------0--0--------------------------------------|
A|-2-------------------2-----------------------------------------------------|
E|------------3------------------3--------------------3----------------------|

e|---------5~--5-5-5-5-3--------------------3-3-3-2~-------------------------|
B|-----2h3------------------------3-2----------------------2-2h3---333-------|
G|------------------------2-0-2-4-----2-0--------------------------222-------|
D|---4--------------------------------------------------4----------222-------|
A|-2--------------------------------------------------2----------------------|
E|---------------------------------------------------------------------------|

e|---------------------------------------------------------------------------|
B|---------------------------------------------------------------------------|
G|---------------------------------------7-7-7-7-7-7-7-7---------------------|
D|-5~----5~---xx----7-7-7-7/9-9-9-9------7-7-7-7-7-7-7-7---------------------|
A|-5~----5~---xx----7-7-7-7-7-7-7-7------5-5-5-5-5-5-5-5---------------------|
E|-3~----3~---xx----5-5-5-5-5-5-5-5------------------------------------------|
pm                                         . . . . . . .

e|---------------------------------------------------------------------------|
B|---------------------------------------------------------------------------|
G|------------------------7--------------------------------------------------|
D|-7-------5------7-------7-x8----7------5-------5-4-2--5--4--0--------------|
A|-7-x8----5-x8---7-x8----5-------7-x8---5-x8--------------------------------|
E|-5-------3------5---------------5------3-----------------------------------|
   pm      pm     pm      pm     pm      pm

e|----------------------------------|
B|----------------------------------|
G|---7--7--7--7--7--7--7--7---------|
D|---7--7--7--7--7--7--7--7---------|
A|---5--5--5--5--5--5--5--5---------|
E|----------------------------------|
 pm  .  .         . .

e|---------------------------------------------------------------------------|
B|---------------------------------------------------------------------------|
G|------------------------7--------------------------------------------------|
D|-7-------5------7-------7-x8----7------5-------5-4-2--5--4--0--------------|
A|-7-x8----5-x8---7-x8----5-------7-x8---5-x8--------------------------------|
E|-5-------3------5---------------5------3-----------------------------------|
   pm      pm     pm      pm      pm




e|---------------------------------------------------------------------------|
B|---------------------------------------------------------------------------|
G|--777-777-77--------------------<------------------------------------------|
D|--775-777-77-----777-777-77-----<==repeat 2 times--------------------------|
A|--555-555-55-----777-777-77-----<------------------------------------------|
E|-----------------555-555-55-----<------------------------------------------|

e|---------------------------------------------------------------------------|
B|---------------------------------------------------------------------------|
G|--7777777777---------------------7777777777--------------------------------|
D|--7777777777-----7777777777------7777777777-----777777/9-9-9-9-------------|- listen to 
A|--5555555555-----7777777777------5555555555-----777777-7-7-7-7-------------|the strumming pattern
E|-----------------5555555555---------------------555555-5-5-5-5-------------|




************************************

| /   slide up
| \   slide down
| h   hammer-on
| p   pull-off
| ~   sustain
| *   harmonic
| x   Mute note
| b   Bend
| pb  Pre-bend
| br  Bend release
| pbr Pre-bend release
| brb Bend release bend
| pm . palm mute
************************************
Tap to rate this tab
 
# A B C D E F G H I J K L M N O P Q R S T U V W X Y Z