Song name
# A B C D E F G H I J K L M N O P Q R S T U V W X Y Z

Deas Vail - Growing Pains tab

Growing Pains - Deas Vail - 1st Electric Guitar
Tabbed by: James Pratt, jp_iliketomoveit@yahoo.com

Symbols used:
/ : Slide up
[ 12 ] : # of measures of rest
4/4, 8/4, 2/4, 6/8, 12/8 : Time signatures (See bottom for details)

Tuning: Standard Tuning: E, A, D, G, B, e
Speed: 150 (300 quarters)

                      Intro / Verse I
     e |----7---111211--7-9-1416|----7---111211--7-9-----|
     B |--9---9-----------------|--9---9-------------9---|
12/8 G |9-------------9---------|9-------------9---------|
time D |------------------------|------------------------|
     A |------------------------|------------------------|
     E |------------------------|------------------------|

     e |----7---111211--7-9-----|----7---111211--7-9-1416|
     B |--9---9-------------9---|--9---9-------9---------|
     G |8-------------9---------|8-----------------------|
     D |------------------------|------------------------|
     A |------------------------|------------------------|
     E |------------------------|------------------------|

     e |------------|------12-11-|---7--11----|---7--14-11-|
     B |---9-/12----|---9--------|7-----------|7-----------|
6/8  G |9-----------|9-----------|------------|------------|
time D |------------|------------|------------|------------|
     A |------------|------------|------------|------------|
     E |------------|------------|------------|------------|

     e |------------|------12-11-|---7--11----|---7--14-11-|
     B |---9-/12----|---9--------|7-----------|7-----------|
     G |9-----------|9-----------|------------|------------|
     D |------------|------------|------------|------------|
     A |------------|------------|------------|------------|
     E |------------|------------|------------|------------|

                     Buildup / Chorus I
     e |55555555|77777777|--------|--------|--------|--------|
     B |55555555|77777777|--------|----0-0-|0-0-2-2-|--------|
4/4  G |66666666|88888888|1-1-1-1-|--------|--------|--------|
time D |77777777|99999999|--------|4-4-----|--------|4-4-4-4-|
     A |77777777|99999999|--------|--------|--------|--------|
     E |55555555|77777777|--------|--------|--------|--------|

     e |--------|--------|--------|--------|--------|--------|
     B |--------|--------|--------|0-0-----|--------|--------|
     G |1-1-----|--------|2-2-2-2-|----1-1-|1-1-2-2-|--------|
     D |----1-1-|1-1-1-1-|--------|--------|--------|1-1-1-1-|
     A |--------|--------|--------|--------|--------|--------|
     E |--------|--------|--------|--------|--------|--------|

     e |--------|--------|----|
     B |--------|--------|----|
     G |--------|--------|----|
     D |1-1-1-1-|1-1-2-2-|2-2-|
     A |--------|--------|----|
     E |--------|--------|----|

                       Verse II
     e |----7---111211--7-9-1416|----7---111211--7-9-----|
     B |--9---9-----------------|--9---9-------------9---|
12/8 G |9-------------9---------|9-------------9---------|
time D |------------------------|------------------------|
     A |------------------------|------------------------|
     E |------------------------|------------------------|

     e |------------|------12-11-|---7--11----|---7--14-7--|
     B |------------|---9--------|7-----------|7-----------|
6/8  G |9--12-------|9-----------|------------|------------|
time D |------------|------------|------------|------------|
     A |------------|------------|------------|------------|
     E |------------|------------|------------|------------|

     e |------------|------12----|---7--11----|---7--14-11-|
     B |---9--12----|---9-----9--|7-----------|7-----------|
     G |9-----------|9-----------|------------|------------|
     D |------------|------------|------------|------------|
     A |------------|------------|------------|------------|
     E |------------|------------|------------|------------|

                     Buildup / Chorus II
     e |5-5-5-5-5-5-5-5-|9-9-9-9-9-9-9-9-|7-7-7-7-7-7-7-7-|
     B |5-5-5-5-5-5-5-5-|9-9-9-9-9-9-9-9-|7-7-7-7-7-7-7-7-|
12/8 G |6-6-6-6-6-6-6-6-|9-9-9-9-9-9-9-9-|8-8-8-8-8-8-8-8-|
time D |7-7-7-7-7-7-7-7-|1111111111111111|9-9-9-9-9-9-9-9-|
     A |7-7-7-7-7-7-7-7-|1111111111111111|9-9-9-9-9-9-9-9-|
     E |5-5-5-5-5-5-5-5-|9-9-9-9-9-9-9-9-|7-7-7-7-7-7-7-7-|

     e |7-7-7-7-7-7-7-7-|
     B |7-7-7-7-7-7-7-7-|
     G |8-8-8-8-8-8-8-8-|
     D |9-9-9-9-9-9-9-9-|
     A |9-9-9-9-9-9-9-9-|
     E |7-7-7-7-7-7-7-7-|

     e |--------|--------|--------|--------|--------|--------|
     B |--------|----0-0-|0-0-2-2-|--------|--------|--------|
4/4  G |1-1-1-1-|--------|--------|--------|1-1-----|--------|
time D |--------|4-4-----|--------|4-4-4-4-|----1-1-|1-1-1-1-|
     A |--------|--------|--------|--------|--------|--------|
     E |--------|--------|--------|--------|--------|--------|

     e |--------|--------|--------|--------|--------|--------|
     B |--------|0-0-----|--------|--------|--------|--------|
     G |2-2-2-2-|----1-1-|1-1-2-2-|--------|--------|--------|
     D |--------|--------|--------|1-1-1-1-|1-1-1-1-|1-1-2-2-|
     A |--------|--------|--------|--------|--------|--------|
     E |--------|--------|--------|--------|--------|--------|

     e |----|--------|--------|--------|--------|--------|
     B |----|--------|----0-0-|0-0-2-2-|--------|--------|
     G |2-2-|1-1-1-1-|--------|--------|--------|1-1-----|
     D |----|--------|4-4-----|--------|4-4-4-4-|----1-1-|
     A |----|--------|--------|--------|--------|--------|
     E |----|--------|--------|--------|--------|--------|

     e |--------|--------|--------|--------|--------|--------|
     B |--------|--------|0-0-----|--------|--------|--------|
     G |--------|2-2-2-2-|----1-1-|1-1-2-2-|--------|--------|
     D |1-1-1-1-|--------|--------|--------|1-1-1-1-|1-1-1-1-|
     A |--------|--------|--------|--------|--------|--------|
     E |--------|--------|--------|--------|--------|--------|

     e |--------|----|
     B |--------|----|
     G |--------|4-4-|
     D |1-1-2-2-|----|
     A |--------|----|
     E |--------|----|

                     Buildup / Bridge
     e |----------------|----------------|----------------|
     B |----------------|----------------|----------------|
8/4  G |----------------|----------------|----------------|
time D |----[          12 measures of rest            ]---|
     A |----------------|----------------|----------------|
     E |----------------|----------------|----------------|

     e |----------------|----------------|----------------|
     B |----------------|----------------|----------------|
     G |----------------|----------------|----------------|
     D |2222222222222222|2222222222222222|2222222222222222|
     A |----------------|----------------|----------------|
     E |----------------|----------------|----------------|

     e |----------------|----------------|----------------|
     B |----------------|----------------|----------------|
     G |----------------|----------------|----------------|
     D |1111111111111111|----------------|----------------|
     A |----------------|4444444444444444|4444444444444444|
     E |----------------|----------------|----------------|

     e |----------------|----------------|----------------|
     B |----------------|----------------|----------------|
     G |----------------|----------------|----------------|
     D |----------------|1111111111111111|----------------|
     A |4444444444444444|----------------|0000000000000000|
     E |----------------|----------------|----------------|

     e |----------------|----------------|----------------|
     B |----------------|----------------|----------------|
     G |----------------|----------------|----------------|
     D |----------------|----------------|----------------|
     A |0000000000000000|2222222222222222|2222222222222222|
     E |----------------|----------------|----------------|

     e |----------------|----------------|----------------|
     B |----------------|----------------|----------------|
     G |----------------|----------------|----------------|
     D |----------------|----------------|----------------|
     A |----------------|----------------|0000000000000000|
     E |4444444444444444|4444444444444444|----------------|

     e |----------------|
     B |----------------|
     G |----------------|
     D |----------------|
     A |1111111111111111|
     E |----------------|

                    Chorus III / Outro
     e |------------|------------|------------|------------|
     B |------------|------------|------------|------------|
6/8  G |------------|----1-------|--------1-1-|------------|
time D |------------|2-4---------|4-4-4-4-----|1-1-1-1-1-1-|
     A |------------|------------|------------|------------|
     E |------------|------------|------------|------------|

     e |------------|------------|------------|------------|----|
     B |------------|------------|------------|------------|----|
     G |2-2-2-2-4-4-|1-1-1-1-2-2-|------------|------------|2-2-|
     D |------------|------------|1-1-1-1-1-1-|1-1-1-1-4-4-|----|
     A |------------|------------|------------|------------|----|
     E |------------|------------|------------|------------|----|

     e |------------|------------|------------|------------|
     B |------------|0-0-0-0-2-2-|------------|------------|
     G |1-1-1-1-----|------------|--------1-1-|------------|
     D |--------4-4-|------------|4-4-4-4-----|1-1-1-1-1-1-|
     A |------------|------------|------------|------------|
     E |------------|------------|------------|------------|

     e |------------|------------|------------|------------|
     B |------------|------------|------------|------------|
     G |2-2-2-2-4-4-|1-1-1-1-2-2-|------------|------------|
     D |------------|------------|1-1-1-1-1-1-|1-1-1-1-1-1-|
     A |------------|------------|------------|------------|
     E |------------|------------|------------|------------|

     e |--------|--------|--------|--------|--------|--------|
     B |--------|--------|0-0-0-0-|0-0-2-2-|--------|--------|
4/4  G |1-1-1-1-|1-1-1-1-|--------|--------|--------|----1-1-|
time D |--------|--------|--------|--------|4-4-4-4-|4-4-----|
     A |--------|--------|--------|--------|--------|--------|
     E |--------|--------|--------|--------|--------|--------|

     e |--------|--------|--------|--------|--------|--------|
     B |--------|--------|--------|----0-0-|--------|--------|
     G |--------|--------|2-2-2-2-|2-2-----|1-1-1-1-|1-1-2-2-|
     D |1-1-1-1-|1-1-1-1-|--------|--------|--------|--------|
     A |--------|--------|--------|--------|--------|--------|
     E |--------|--------|--------|--------|--------|--------|

     e |--------|--------|--------|--------|
     B |--------|--------|--------|000-0000|
     G |--------|--------|--------|222-2222|
     D |1-1-1-1-|1-1-1-1-|1-1-1-1-|111-1111|
     A |--------|--------|--------|222-2222|
     E |--------|--------|--------|--------|

   Time signatures used in this song: 4/4, 8/4, 2/4, 6/8, 12/8. For most beginners they
mostly use the time signature 4/4 in all their songs. This song isn't like that the
way. Another major time signature this song uses is 6/8 time. It means you could six 
per measure, instead of the regular four. The time signature 8/4 is just 4/4, but each beat
is in quarter notes, not half notes that is in 4/4. So it's basically 4/4, but doubled. 
thing goes for 12/8 time. It's just double 6/8 time. 2/4 time just counts two beats per 
Any further questions, just email me, I'll get you back in no time. Email is at the top.

   These are the rather complicated looking tabs for the song 'Growing Pains' by Deas
from their new CD, Birds and Cages. Sorry I couldn't get the lyrics in with it... As
the times work, if you play along with the song, you'll get it all worked out. I tried 
make everything as simple as possible. Thanks for reading, and good luck on the song.

-James
Tap to rate this tab
 
# A B C D E F G H I J K L M N O P Q R S T U V W X Y Z