Deas Vail - Excuses tab

-----------------------------------------------------------------------------
			     Excuses - Deas Vail
-----------------------------------------------------------------------------
Tabbed by: Wendy

Tuning: Standard

e|----------9---10-----------------------------------------------------------|
B|-------7-----------7---10--------------------------------------------------|
G|--7--9-----------------------9--11----11--12-------------------------------|
D|-----------------------------------------------11---14----14--16---11--12--|
A|---------------------------------------------------------------------------|
E|---------------------------------------------------------------------------|
Tap to rate this tab
 
# A B C D E F G H I J K L M N O P Q R S T U V W X Y Z