Song name
# A B C D E F G H I J K L M N O P Q R S T U V W X Y Z

Deas Vail - Common Sense tab

This is one of my favorite songs off their new album and I couldn't find a tab on it so 
I decided to write one cause this is a great chill song. so here we go...

CAPO 1

listen to the song for the strumming pattern...

Intro
e-------0--------------------------|
B-------0--------------------------|
G-------1--------------------------|
D-------2--------------------------|
A-------2--------------------------|
E-------0--------------------------|

*Palm mute (I think it sounds best to palm mute the whole verse but its up to you)


           "...I'm drawing circles in the sand"
Verse
e-------------0---------------0---------------5-----------------------|
B-------------0---------------1---------------6----------2--2p0-------|
G-------------1---------------0---------------7----------2--2---------|
D-------------2---------------2---------------7----------2--2---------|
A-------------2-----3*---3*---3-----5*---5*---5-----------------------|
E---0*---0*---0-------------------------------------------------------|

"I'm reliving the moment..."
Bridge x2
e----5-------0--------0-------0---------------------------------------|
B----6-------2--------0-------1---------------------------------------|
G----7-------2--------1-------0---------------------------------------|
D----7-------2--------2-------2---------------------------------------|
A----5-------0--------2-------3---------------------------------------|
E---------------------0-----------------------------------------------|

Chorus

Ooh...
e----5-------0--------5-------0--------------------------------------|
B----6-------2--------6-------2--------------------------------------|
G----7-------2--------7-------2--------------------------------------|
D----7-------2--------7-------2--------------------------------------|
A----5-------0--------5-------0--------------------------------------|
E--------------------------------------------------------------------|

...And burning inside...            burning inside...
e--0---------------------------------0--------------------------------|
B--2---------------------------------1--------------------------------|
G--2---------------------------------0--------------------------------|
D--2---------------------------------2--------------------------------|
A--0---------------------------------3--------------------------------|
E---------------------------------------------------------------------|

And thats everything. Whats left just repeats itself. So enjoy.
Tap to rate this tab
# A B C D E F G H I J K L M N O P Q R S T U V W X Y Z