Song name
# A B C D E F G H I J K L M N O P Q R S T U V W X Y Z

Deas Vail - The Meaning Of A Word tab

This song is really simple but I love it. I hope you enjoy it

0:04
e|-12-10----|
B|------8-7-|
G|----------| (x15
D|----------|
A|----------|
E|----------|

1:09
e|----h10---|
B|-7/8------|
G|----------|
D|----------|
A|----------|
E|----------|

1:12
e|-12-10----|
B|------8-7-|
G|----------| (x13)
D|----------|
A|----------|
E|----------|

2:09
e|----h10---|
B|-7/8------|
G|----------|
D|----------|
A|----------|
E|----------|

2:12 
e|-12-10----|
B|------8-7-|
G|----------| (x10)
D|----------|
A|----------|
E|----------|

2:55 Played like the rest but a little slower
e|-12-10----|
B|------8-7-|
G|----------|
D|----------|
A|----------|
E|----------|

*********************************
h = hammer
/ = slide down
*********************************
Tap to rate this tab
# A B C D E F G H I J K L M N O P Q R S T U V W X Y Z