Song name
# A B C D E F G H I J K L M N O P Q R S T U V W X Y Z

Deas Vail - Excuses tab

-----------------------------------------------------------------------------------
EXCUSES - Deas Vail
-----------------------------------------------------------------------------------
Tabbed by: simplylogan93


Hey there!  This is my first ever tab that I've posted on Ultimate Guitar.
I have figured out all of this song, except for the guitar parts in the background 
of the verses, by ear.
Let me know what you think, and feel free to submit suggestions!


Tuning: Dropped D (DADGBE)



Intro (after two measures of drums)

Guitar 1 (Lead)
e|--------------9---10----------------------------------------------------------------------------|
B|----------7----------------7---10-------7-------7---8-------------------7-----------------------|
G|--7---9-----------------------------9-------------------6---9-------9-------6---7---(slide to 4)|
D|--------------------------------------------------------------------------------------optional--|
A|------------------------------------------------------------------------------------------------|
D|------------------------------------------------------------------------------------------------|

Guitar 2 (Rhythm)
e|---------------------------------------------------------------------------|
B|---------------------------------------------------------------------------|
G|---------------------------------------------------------------------------|
D|------------12-----------------------12-------------12-----------------12--|
A|-------12-----------------------12-------------12-----------------12-------|
D|--12-----------------------12-------------12-----------------12------------|




Verse: (listen to the song for help with rhythm - it's fairly straightforward.)

Guitar 1 (Lead)
e|----------------------------------------------------------------------0---------|
B|----------------------------------------------------------------------17--(8x)--|
G|---------------Will get to tabbing soon!----------------------------------------|
D|--------------------------------------------------------------------------------|
A|--------------------------------------------------------------------------------|
E|--------------------------------------------------------------------------------|

Guitar 2 (Rhythm)
e|--------------------------------------------------------------------|
B|--------------------------------------------------------------------|
G|--------------------------------------------------------------------|
D|--12---12--------5---5--------9---9-------7-------------------------|
A|--12---12--------5---5--------9---9-------7-----Build up from here--|
D|--12---12--------5---5--------9---9-------7-------------------------|




Chorus:

Guitar 2 (Rhythm)
e|--------------------------------------------------------------------------|
B|--------------------------------------------------------------------------|
G|--------------------------------------------------------------------------|
D|--7-7-7-7-7-7-7-7-4-4-4-4-4-4-4-4-5-5-5-5-5-5-5-5-0-0-0-0-0-0-0-0---------|
A|--7-7-7-7-7-7-7-7-4-4-4-4-4-4-4-4-5-5-5-5-5-5-5-5-0-0-0-0-0-0-0-0---(4x)--|
D|--7-7-7-7-7-7-7-7-4-4-4-4-4-4-4-4-5-5-5-5-5-5-5-5-0-0-0-0-0-0-0-0---------|




Intro Riff

Guitar 1 (Lead)
e|--------------9---10----------------------------------------------------------------------------|
B|----------7----------------7---10-------7-------7---8-------------------7-----------------------|
G|--7---9-----------------------------9-------------------6---9-------9-------6---7---(slide to 4)|
D|--------------------------------------------------------------------------------------optional--|
A|------------------------------------------------------------------------------------------------|
D|------------------------------------------------------------------------------------------------|




Verse 2 (same tab as first verse)




Chorus (same tab as first chorus)




Bridge:

Guitar 1 (Lead)
e|---------------------14-14-17-17-17-17-17-17----------------------------------------------------|
B|--15-15-15--17-17-17---------------------------14-14-14-15-15-15-12-12-12-----------------------|
G|-----------------------------------------------------------------------------14-14-14-14-14-14--|
D|------------------------------------------------------------------------------------------------|
A|------------------------------------------------------------------------------------------------|
E|------------------------------------------------------------------------------------------------|




Chorus (start at 444 - after "C'mon, c'mon.")




End with Intro Riff
Tap to rate this tab
# A B C D E F G H I J K L M N O P Q R S T U V W X Y Z