Song name
# A B C D E F G H I J K L M N O P Q R S T U V W X Y Z

Death Angel - Ultra Violence tab

-----------------------------------------------------------------------------
			     Death Angel-The Ultra Violence
-----------------------------------------------------------------------------


Tabbed by:Slayyer


Tuning:

e|0----0----7----0----8----0----5----3----0----3----3----0----5----0----2---3-|
B|----------------------------------------------------------------------------|
G|----------------------------------------------------------------------------|
D|----------------------------------------------------------------------------|
A|----------------------------------------------------------------------------|
E|----------------------------------------------------------------------------|

e|----------------------------------------------------------------------------|
B|----------------------------------------------------------------------------|
G|----------------------------------------------------------------------------|
D|----------------------------------------------------------------------------|
A|----------------------------------------------------------------------------|
E|0----0----7----0----8----0----5----3----0----3----3----0----5----0----2---3-|

e|---------------------------------------------------------------------------|
B|5----5----7----8-----------------------------------------------------------|
G|--------------------6----7-------------------------------------------------|
D|------------------------------6----7---------------------------------------|
A|----------------------------------------6----7--------------2--------------|
E|--------------------------------------------------6----7----0--------------|
Tap to rate this tab
 
# A B C D E F G H I J K L M N O P Q R S T U V W X Y Z