Song name
# A B C D E F G H I J K L M N O P Q R S T U V W X Y Z

Death Angel - Volcanic tab

Tjhis is both Intro and Verse of the beautiful Song "Volcanic" by Death Angel; Enjoy playing!

E------------------------|------------------------|------------------------|
H------------------------|------------------------|------------------------|
G---0---------------0----|---0---------------0----|---0---------------0----|
D---------4-----2-----4-2|---------4-----2-----4-2|---------4-----2-----4-2|
A-2---2-2---2-2---2------|-2---2-2---2-2---2------|-3---3-3---3-3---3------|
E------------------------|------------------------|------------------------|

E--------------------------------|
H--------------------------------|
G-------------------0-------2-0--|
D---2-------4-------------------4|
A-3---3-3-3---3-3-3---3-3-3------|
E--------------------------------|
Tap to rate this tab
 
# A B C D E F G H I J K L M N O P Q R S T U V W X Y Z