Guitaretab - guitar tabs
Song name
# A B C D E F G H I J K L M N O P Q R S T U V W X Y Z

Death Angel - Thrown To The Wolves tab

-----------------------------------------------------------------------------
                   DEATH ANGEL - THROWN TO THE WOLVES
-----------------------------------------------------------------------------
TUNING: STANDARD

Riff 1: GUITAR ONE

E|------------------------------------------------------|
B|------------------------------------------------------|
G|------------------------------------------------------|
D|-9----------------8--------------------10------9------|
A|-7----------------6---------------------8------7------|
E|------------------------------------------------------|

Riff 1: GUITAR TWO

E|------------------------------------------------------|
B|------------------------------------------------------|
G|------------------------------------------------------|
D|------------------------------------------------------|
A|------------------------------------------------------|
E|-0000000000000000000000000000000000000000000000000000-|
PM ****************************************************

Fill 1: GUITAR ONE
[ Tab from: http://www.guitaretab.com/d/death-angel/65212.html ]
E|------------------------------------------------------|
B|------------------------------------------------------|
G|------------------------------------------------------|
D|-9----------------8--------------------10------^9^----|
A|-7----------------6---------------------8------^7^----|
E|------------------------------------------------------|

Riff 1: GUITAR ONE

E|------------------------------------------------------|
B|------------------------------------------------------|
G|------------------------------------------------------|
D|-9----------------8--------------------10------9------|
A|-7----------------6---------------------8------7------|
E|------------------------------------------------------|

Riff 1 A: GUITAR TWO

E|-----------------------------------------------------|
B|-----------------------------------------------------|
G|-----------------------------------------------------|
D|-----------------------------------------------------|
A|-----------------------------------------------------|
E|-0-0-0-0-0-0-0-0-0-0-0-0-0-0-0-0-0-0-0-0-0-0-0-0-0-0-|
PM * * * * * * * * * * * * * * * * * * * * * * * * * *

THATS ALL I HAVE ILL TRY TO FIGURE OUT THE REST IN THE NEXT FEW MONTHS.
IM NOT SURE BUT IF YOU DONT KNOW ALTERNATE PICKING YOU ARE A NOVICE AND
THAT IS WHY I SET IT AT INTERMEDIATE.

KEY:

PM = PALM MUTE
^9^ = REST
^7^



Related for Thrown To The Wolves tab
Advertisement will be closed in 10 seconds