Song name
# A B C D E F G H I J K L M N O P Q R S T U V W X Y Z

Death By Stereo - No Shirt No Shoes No Salvation tab

www.deathbystereo.com    
they are a hardcore punk band from america!
they are amazing! 

Author/Artist: death by stereo
Title: no shirt no shoes no salvation(solo)
Album: day of the death
Transcribed by: paul
Email: aint_life_a_bitc_h@hotmail.com

now then!!!if this is right then bloody hell  good luck!
sorry if some bits are out!it was damn hard to tab!
tell me what you think!please!!!
(oh yeah detune all strings 1/2 step)
   t      t      t       t           t           t            t      
-|-19p14h1714h16h17p14----------------------------------------------------|--
-|----------------------19p15h17p15h19p15h17p15---------------------------|--
-|-----------------------------------------------18p14h16p14h18p14h16p14--|--
-|------------------------------------------------------------------------|--
-|------------------------------------------------------------------------|--
-|------------------------------------------------------------------------|--
    t     t      t      t            t            t           t 
-|-19p14h1714h16h17p14----------------------------------------------------|--
-|----------------------19p15h17p15h19p15h17p15---------------------------|--
-|-----------------------------------------------18p14h16p14h18p14h16p14--|--
-|------------------------------------------------------------------------|--
-|------------------------------------------------------------------------|--
-|------------------------------------------------------------------------|--
             
   t     t      t      t            t            t           t 
-|-19p14h1714h16h17p14----------------------------------------------------|--
-|----------------------19p15h17p15h19p15h17p15---------------------------|--
-|-----------------------------------------------18p14h16p14h18p14h16p14--|--
-|------------------------------------------------------------------------|--
-|------------------------------------------------------------------------|--
-|------------------------------------------------------------------------|-- 

                                                                            
-|--------------------------------------------------14--------|--------------
-|-15h17p15h19--15h17p15h17p15----------------------17b19-----|--------------
-|------------------------------18p16p14h16p16h14-------------|--------------
-|------------------------------------------------------------|--------------
-|------------------------------------------------------------|--------------
-|------------------------------------------------------------|--------------
                                                                              

-|-17-19-17-16----16h17p16h17p16-----------------19-17h19p17--|--------------
-|---------------------------------15p14h15-------------------|--------------
-|------------------------------------------------------------|--------------
-|------------------------------------------------------------|--------------
-|------------------------------------------------------------|--------------
-|------------------------------------------------------------|--------------
                 !very fast trill)                                            
   t            t            t           t
-|-----------------------------------------------------------------------|---
-|-19p15h17p15h19p15h17p15---------------------------12------14----17-14-|---
-|--------------------------18p14h16p14h18p14h16p14--14b16---16b18-------|---
-|-----------------------------------------------------------------------|---
-|-----------------------------------------------------------------------|---
-|-----------------------------------------------------------------------|---
                                                                              

-14-----|--------------------------------------------------------------------
-17b18--|--------------------------------------------------------------------
--------|--------------------------------------------------------------------
--------|--------------------------------------------------------------------
--------|--------------------------------------------------------------------
--------|--------------------------------------------------------------------
Tap to rate this tab
# A B C D E F G H I J K L M N O P Q R S T U V W X Y Z