Song name
# A B C D E F G H I J K L M N O P Q R S T U V W X Y Z

Death By Stereo - Wasted Word tab

this is the intro after the finger picing

e-------------------------------------|
b-------------------------------------|
g--12---------------------------------|
D--10---------10S-13------------------|
A-----10--13--8-S-10------------------|
E------8--11--------------------------|


e-------------------------------------|
b-------------------------------------|
g--12---------------------------------|
D--10---------10----------------------|
A-----10--13--8-----------------------|
E------8--11--------------------------|
THIS PART IS JUST BEFORE THE DRUM SOLO

S= SLIDE

IS WAS MY FRIST TAB....IF YOU HAVE A SUGESTION PLEASE SEND ME A E-MAIL TO: BINOI_ROCKSTAR@HOTMAIL.COM

THANKS  BEN
Tap to rate this tab
 
# A B C D E F G H I J K L M N O P Q R S T U V W X Y Z