Song name
# A B C D E F G H I J K L M N O P Q R S T U V W X Y Z

Death By Stereo - Fooled By Your Smile tab

This is the litlle intro with the piano ...but this is for the guitar:
( i have make the intro in normal tuning)

e)------------------------------------------------------|x2
b)--------14----------15----------16----------15--------|
G)--13-12----13-12-13----13-12-13----13-12-13----13-----|
D)------------------------------------------------------|
A)------------------------------------------------------|
E)------------------------------------------------------|
(This is another version but with the sames notes)
e)------------------------------------------------------|
b)------------------------------------------------------|
G)------7-------8-------9-------8-----------------------|
D)--6-5---6-5-6---6-5-6---6-5-6---6---------------------|
A)------------------------------------------------------|
E)------------------------------------------------------|
(another version ...)
e)------------------------------------------------------|
b)------------------------------------------------------|
G)------------------------------------------------------|
D)--------12----------13----------14---------13---------|
A)--11-10----10-11-10----10-11-10----10-11-10---10------|
E)------------------------------------------------------|


So Enjoy The Intro!!:) ...ha! i Need Some Help For Continue This Tab....Please Send Me A 
TO : Binoi_Rockstar@hotmail.com

Thanks
Ben;)
Tap to rate this tab
# A B C D E F G H I J K L M N O P Q R S T U V W X Y Z