Song name
# A B C D E F G H I J K L M N O P Q R S T U V W X Y Z

Death Cab For Cutie - I Will Possess Your Heart tab

this is the piano and bass parts transcribbed for guitar, there is another tab for this, 
the piano is an octave too high.
this works well on an acoustic ;)
Enjoy =]
Standard Tuning


Bass Part:
e|--------------------------------------------------------------------------|
B|--------------------------------------------------------------------------|
G|--------------------------------------------------------------------------|
D|----------------------------3----------3-----3--5--7----------------------|
A|--3-5--5-5--3--3-5--5-5--3----5--5-5-----5--------------------------------|
E|--------------------------------------------------------------------------|


Piano
e|--------------------------------------------------------------------------|
B|--------------------------------------------------------------------------|
G|-7-7-5--------------5-----------------------------------------------------|
D|-------7------3-3-5-------------------------------------------------------|
A|--------------------------------------------------------------------------|
E|--------------------------------------------------------------------------|

Verse
D
How I wish you could see the potential
F
The potential of you and me
D
It's like a book elegantly bound
F
But in a language that you can't read just yet


Chorus
D
You gotta spend some time, love
F                         G
You gotta spend some time with me
D
And I know that you'll find, love
F                      G
I will possess your heart


Verse 2
D
There are days when outside your window
F
I see my reflection as I slowly pass
D
And I longed for this mirrored perspective
F
When we'll be lovers, lovers at last


Bridge
F             G
You reject my advances
F             G
And desperate pleas
F               G
I won't let you let me down
F         G     F        G
So easily      So easily
Tap to rate this tab
# A B C D E F G H I J K L M N O P Q R S T U V W X Y Z