Song name
# A B C D E F G H I J K L M N O P Q R S T U V W X Y Z

Death Cab For Cutie - Line Of Best Fit tab

Line Of Best Fit
Death Cab For Cutie
Something About Airplanes

Drop D
* - Harmonic
/ - Slide

Slow Tempo

Intro/Verse
e------------------------------------------|
B------------------------------------------|
G------0-----0-----0-----0-----0-----0-----|
D----4-----4-----4-----4-----4-----4-------|
A--------------------------2-----0---------|
D--0-----0-----5-----5---------------------|
\
These things take my time and energies
Don't stand too close without apologies
Cutthroat, candid glimpses and
Wind me up, I'm ready

Chorus
(Strumming not shown)
e------------------------------------------------------|
B------------------------------------------------------|
G------------------------------------------------------|
D--0-0-0-0-0-0-0-0-0-0-0-0-0-0-0-0-0-0-0-0-0-0-0-0-----|
A--5-5-5-9-9-9-7-7-7-5-5-5-4-4-4-5-5-5-7-7-7-4-4-4-----|
D--5-5-5-5-5-5-5-5-5-5-5-5-4-4-4-4-4-4-4-4-4-4-4-4-----|

Can't escape this line of best fit
Can't escape this line of best fit

Verse
e------------------------------------------|
B------------------------------------------|
G------0-----0-----0-----0-----0-----0-----|
D----4-----4-----4-----4-----4-----4-------|
A--------------------------2-----0---------|
D--0-----0-----5-----5---------------------|

These things take my time and energies
Don't stand too close without apologies
I remember being inside something more than you

Chorus
*Strumming not shown
e------------------------------------------------------|
B------------------------------------------------------|
G------------------------------------------------------|
D--0-0-0-0-0-0-0-0-0-0-0-0-0-0-0-0-0-0-0-0-0-0-0-0-----|
A--5-5-5-9-9-9-7-7-7-5-5-5-4-4-4-5-5-5-7-7-7-4-4-4-----|
D--5-5-5-5-5-5-5-5-5-5-5-5-4-4-4-4-4-4-4-4-4-4-4-4-----|

Can't escape this line of best fit
Can't escape this line of best fit
Can't escape this line of best fit
Can't escape this line of best fit

Outro
(Strumming not shown)
e------------------------------------------------------------|
B---------------------------------------------------*5-------|
G--/11-11-11-9-9-9-7-7-7-6-6-6------0-----0-----0------------|Repeat a bunch of times
D---0--0--0--0-0-0-0-0-0-0-0-0----4-----4-----4-------*5-----|
A--/9--9--9--7-7-7-5-5-5-4-4-4-------------------------------|
D---0--0--0--0-0-0-0-0-0-0-0-0--5-----5-----5-----5----------|

e------------------------------------------|
B------------------------------------------|
G------0-----0-----0-----0-----0-----0-----|
D----4-----4-----4-----4-----4-----4-------|
A--------------------------2-----0---------|
D--0-----0-----5-----5---------------------|

I remember being inside something more than you
Tap to rate this tab
# A B C D E F G H I J K L M N O P Q R S T U V W X Y Z