Song name
# A B C D E F G H I J K L M N O P Q R S T U V W X Y Z

Death Cab For Cutie - Passenger Seat tab

Help us improve GuitareTab! Take a short survey!
SONG - Passenger Seat
ARTIST - Death Cab For Cutie
ALBUM - Transatlanticism (Barsuk Records,October 2003)
TUNING - Standard
TRANSCRIBED BY - JJ

_____________
INTRO & VERSE (x3)

E--|------2------|------2------|------14--------|------3-2-0-2---|
B--|--3----------|--3----------|------------15--|----------------|
G--|--------2-0--|--------2-0--|--2------14-----|--4-------------|
D--|--0----------|--0----------|----------------|----------------|
A--|-------------|-------------|--0-------------|--2-------------|
E--|-------------|-------------|----------------|----------------|

E--|------2------|------2------|------14--------|------3-2-0-2--0-----|
B--|--3----------|--3----------|------------15--|-----------------3---|
G--|--------2-0--|--------2-0--|--2------14-----|--4------------------|
D--|--0----------|--0----------|----------------|---------------------|
A--|-------------|-------------|--0-------------|--2------------------|
E--|-------------|-------------|----------------|---------------------|


______
CHORUS (x1)

E--|---------------------------------------------------------2---------------|
B--|----------0-3-----------------------2-0---------------3------------------|
G--|--------0--------------0-2--------0--------------0----------2--0---------|
D--|------0------------0-4----------0------------0-4---4--0-----------4--2---|
A--|----2------------2------------2------------2-----------------------------|
E--|--3------------3------------3------------3-------------------------------|

E--|---------------------------------------------------------2-------------2---------|
B--|----------0-3-----------------------2-0---------------3-------------3------------|
G--|--------0--------------0-2--------0--------------0----------2--0----------2--0---|
D--|------0------------0-4----------0------------0-4---4--0-------------0------------|
A--|----2------------2------------2------------2-------------------------------------|
E--|--3------------3------------3------------3---------------------------------------|


______
BRIDGE (x1)

E--|-----------|-----------|-----------|------------|
B--|--2-----2--|--0-----0--|-----------|--0-----0---|
G--|--2---2-2--|--0---0-0--|--2-----2--|--0---0-0---|
D--|--2-----2--|--0-----0--|--4-----4--|--0-----0---|
A--|-----------|-----------|--5---5-5--|------------|
E--|-----------|-----------|-----------|------------|

E--|-----------|-----------|-----------|------------|
B--|--2-----2--|--0-----0--|-----------|--0-----0---|
G--|--2---2-2--|--0---0-0--|--2-----2--|--0---0-0---|
D--|--2-----2--|--0-----0--|--4-----4--|--0-----0---|
A--|-----------|-----------|--5---5-5--|------------|
E--|-----------|-----------|-----------|------------|

E--|-----------|-----------|----------|--------------------|
B--|-----------|-----------|--2----3--|--0----0---0----0---|
G--|--3-----3--|--4-----4--|--2----2--|--0----0---0----0---|
D--|--4---4-4--|--5---5-5--|--0--0-4--|--0----0---0----0---|
A--|--5-----5--|--5-----5--|----------|--5--5-----5--5-----|
E--|-----------|-----------|----------|--------------------|


_____
OUTRO (x1)

E--|------2------|------2----------|--------|
B--|--3----------|--3--------------|--------|
G--|--------2-0--|----------2---0--|--------|
D--|--0----------|--0--------------|----4---|
A--|-------------|-----------------|--5-----|
E--|-------------|-----------------|--------|


______
LYRICS

_____________
INTRO & VERSE

I roll the window down
And then begin to breathe in
The darkest country road
And the strong scent of evergreen
From the passenger seat as you are driving me home.

Then looking upwards
I strain my eyes and try
To tell the difference between shooting stars and satellites
From the passenger seat as you are driving me home.

______
CHORUS

"do they collide?"
I ask and you smile.
With my feet on the dash
The world doesn't matter.

______
BRIDGE

When you feel embarrassed then i'll be your pride
When you need directions then i'll be the guide
For all time.
For all time.

_____
OUTRO
Related for Passenger Seat tab