Song name
# A B C D E F G H I J K L M N O P Q R S T U V W X Y Z

Death Cab For Cutie - Lack Of Color Acoustic tab

Help us improve GuitareTab! Take a short survey!
A lack of color by: Death cab for Cutie
Hero904 (Adan)
Gator4life904@yahoo.com

Intro and Verse:
e |----------------------------------------------| 
b |----------------------------------------------| 
G |----------------------------------------------|
D |--5-5-5-5-5-5--/1-1----/5-5-5-5-5-5--/3-3-----|
A |----------------------------------------------| 
Eb|-0-0-0-0-0-0---0--0----0-0-0-0-0-0---0-0------|

e |----------------------------------------------| 
b |--4-4-4-4-4-4-------------------4-4---3-3-----| 
G |--------------------3-3-----------------------|
D |----------------------6-6-6-6-----------------|
A |-3-3-3-3-3-3---3-3---3-3-3-3---3-3---3-3------| 
Eb|----------------------------------------------|

Chorus:
e |-------------3-----------------------------| 
b |-3--3----3---4---3-------------------------| 
G |-3--3----1---5---3-------------------------|
D |-3--3----3---5---3-------------------------| 
A |-1--1----2---3---1-------------------------| 
Eb|-------------------------------------------|

Bb H07
to call at 7:03
Cm
and on your machine I slur a plee
Bb
for you to come home
G# Bb H07 
(fill) but I know it's to late

Cm Bb G#
e |-3---------x--------------| 
b |-4----3----x--------------| 
G |-5----3----5--------------|
D |-4----3----5--------------| 
A |-3----1----x--------------| 
Eb|-----------5--------------|

H07 Cm Bb G#
and I should have given you a reason to stay

Cm Bb G#
given you a reason to stay                            (x3)

Outro:
e |----------------------------------------------| 
b |----------------------------------------------| 
G |----------------------------------------------|
D |--5-5-5-5-5-5--/1-1----/5-5-5-5-5-5--/3-3-----|
A |----------------------------------------------| 
Eb|-0-0-0-0-0-0---0--0----0-0-0-0-0-0---0-0------|

e |----------------------------------------------| 
b |--4-4-4-4-4-4-------------------4-4---3-3-----| 
G |--------------------3-3-----------------------|
D |----------------------6-6-6-6-----------------|
A |-3-3-3-3-3-3---3-3---3-3-3-3---3-3---3-3------| 
Eb|----------------------------------------------|


Feel free to comment and rate.
Related for Lack Of Color Acoustic tab