Song name
# A B C D E F G H I J K L M N O P Q R S T U V W X Y Z

Death Cab For Cutie - Your New Twin Sized Bed tab

Alright guys: this is my first time and I really gave myself a challange
This tab is a mixture of guitars 1 and 2. It is played by the band with 2
guitars, but I'm a solo player, so I figured there would be other people
who wanted 1 guitar as well that sounded at least decent. Everything is
relative to the capo. This is a kind of hard to tab, but nothing too
difficult. Enjoy and definitely email comments! I tried to make it
accurate... =D
-------------------------------------------------------------------------------
			     YOUR NEW TWIN SIZED BED - Death Cab for Cutie
-------------------------------------------------------------------------------
Tabbed by: Angela
Email: achristinewhite@comcast.net

Tuning: Drop D, Capo 1
INTRO
e|--------------------------------------------------------------------------|
B|---3-----2------0-----0---------------------------------------------------|
G|--------------------------------------------------------------------------|
D|-4---4-2---2--------------------------------------------------------------|
A|-0---0-0---0--------------------------------------------------------------|
D|--------------5---5-5---5-------------------------------------------------|
the next part is the rest of the intro and the verses... (You look so defeated)
e|----5-7-------------------------------------------------------------------|
B|----3-0--9--9--5---5--3---------------------------------------------------|
G|---------7-7---0--4---0---------------------------------------------------|
D|--4------9-----5-5----x---------------------------------------------------|
A|-0-------x-----x------x---------------------------------------------------|
D|---------9-----5------3---------------------------------------------------|
This part is strummed:                           (finger pick)
  And I hope, you have more luck with this than me.
&       Other than a sick   desire for self   abuse 
e|------0--------------------------------------------5-7--------------------|
B|------0-------------------5------------------------3-0--9--9--5---5--3----|
G|------0-------------------3----------------------4------9-----5-5----x----|
D|------2-------------------5---------------------0-------x-----x------x----|
A|------2-------------------x-----------------------------7-7---0--4---0----|
D|------2-------------------5-----------------------------9-----5------3----|

Verse 2, then chord part
then strummed:

 And I tried not to worry, but you've got me terrified
e|-------0------------0----------------0------------------------------------|
B|-------3------------3----------------3------------------------------------|
G|-------2------------4----------------4------------------------------------|
D|-------4------------0----------------4------------------------------------|
A|-------0------------5----------------2------------------------------------|
D|-------0------------5----------------x------------------------------------|
 
 It's like we're in some kind of hurry to say goodbye, to say goodbye, 
e|------0-------------------------0--------------0----------------0---------|
B|------0-------------------------5--------------0----------------5---------|
G|------0-------------------------3--------------0----------------3---------|
D|------2-------------------------5--------------2----------------5---------|
A|------2-------------------------x--------------2----------------x---------|
D|------2-------------------------5--------------2----------------5---------|
on the last to say goodbye he goes back to the verse, then just keep playing
the verse until it's done. I hope I spelled out everything pretty clear, I
think I did. 
--------------------------------------------------------------
You look so defeated lying there in your new twin sized bed
With a single pillow underneath your single head
I guess you decided that that whole queen was more space than you would need
Now it's in the ally behind your apartment with a sign that says, "It's free"

And I hope you have more luck with this than me...

You used to think that someone would come along
And lay beside you in the space that they belonged
The other side of the mattress and box springs stayed like new
What's the point of holding on to what never gets used?

Other than a sick desire for self abuse...

And I tried not to worry, but you've got me terrified.
It's like we're in some kind of hurry to say goodbye, to say goodbye, oh to say goodbye.

You look so defeated lying there in your new twin sized bed
You look so defeated lying there in your new twin sized bed.
************************************

| /   slide up
| \   slide down
| h   hammer-on
| p   pull-off
| ~   vibrato
| +   harmonic
| x   Mute note
| b   Bend
| pb  Pre-bend
| br  Bend release
| pbr Pre-bend release
| brb Bend release bend

************************************
Tap to rate this tab
# A B C D E F G H I J K L M N O P Q R S T U V W X Y Z