Song name
# A B C D E F G H I J K L M N O P Q R S T U V W X Y Z

Death Cab For Cutie - Cath Acoustic tab

This is my first tab. This tab is very close to being accurate to the acoustic 
version of Cath...by DCFC. Listen to the song for the rhythm and counting. 


Capo 2
{Standard tuning}

-INTRO-
Part A
E|------------------------x--xx-x-xx-xx-xxx--|
B|----0---0-0-------------0--00-3-33-33-300--|
G|----2/4-4-4-0---------0-0--00-2-22-22-200--|
D|----------------0h2h4---0--00-0-00-00-000--|
A|--------------3---------0--00-0-00-00-000--|
E|------------------------3--33-3-33-33-333--|

E|------------------------x--xx-x-xx-xx-xxx--|
B|----0---0-0-------------0--00-3-33-33-300--|
G|----2/4-4-4-0---------0-0--00-0-00-00-000--|
D|----------------0h2h4---0--00-4-44-44-400--|
A|--------------3---------0--00-x-xx-xx-x00--|
E|------------------------3--33-3-33-33-333--|

E|------------------------x--xx-x-xx-xx-xxx--|
B|----0---0-0-------------0--00-3-33-33-300--|
G|----2/4-4-4-0---------0-0--00-2-22-22-200--|
D|----------------0h2h4---0--00-0-00-00-000--|
A|--------------3---------0--00-0-00-00-000--|
E|------------------------3--33-3-33-33-333--|
Part B 
E|-0-0-0-00-0-0-0-0--0-0-00-0-0-0-00---------|
B|-0-0-0-00-3-3-3-0--0-0-00-0-0-0-00---------|
G|-0-0-0-00-2-2-2-0--0-0-00-2-2-2-22---------|
D|-2-2-2-22-0-0-0-2--2-2-22-2-2-2-22---------|
A|-2-2-2-22-0-0-0-4--4-4-44-0-0-0-00---------|
E|-0-0-0-00-0-0-0-0--0-0-00-0-0-0-00---------|
Part C
E|-00000033333-3---00000033333-3-------------|
B|-00000000000-0---00000000000-0-------------|
G|-00000000000-0---00000000000-0-------------|  x2 and then verse.
D|-00000000000-0---00000000000-0-------------|
A|-77777722222-2---77777722222-2-------------|
E|-88888833333-3---88888833333-3-------------|

Part C is also the verses
Part B-C is the chorus. 

Outro
E|-0-0-0-00-0-0-0-0
B|-0-0-0-00-3-3-3-0
G|-0-0-0-00-2-2-2-0   Let ring. 
D|-2-2-2-22-0-0-0-2
A|-2-2-2-22-0-0-0-4
E|-0-0-0-00-0-0-0-0
Tap to rate this tab
 
# A B C D E F G H I J K L M N O P Q R S T U V W X Y Z