Song name
# A B C D E F G H I J K L M N O P Q R S T U V W X Y Z

Death Cab For Cutie - Brothers On A Hotel Bed tab

A lot easier to finger then the other tabs i've seen on here, song was written for piano 
its kinda jumpy with the fretting but i think i did well in minimizing that as much as possible.

Standard Tuning:


Intro

|-----6----------3----------6----------3--3-------|
|--4----6-1--4-----1-----4----6-1--4------1---4-6-|
|--5------0----3---1-----5------0----3----1-------|
|--5-----------1---------5-----------1------------|
|-------------------------------------------------|
|--4-----------------4---4------------------------|


|-----6----------3---------------------3--3----------------------|
|--4----6-1--4-----1-----4--4-6-1--4------1----6----3----4-----1-|
|--5------0----3---1-----5------0----3----1----7----3----5--3--0-|
|--5-----------1---------5-----------1---------------------------|
|---------------------------------------------------1----3-------|
|--4-----------------4---4---------------------6-----------------|
Tap to rate this tab
# A B C D E F G H I J K L M N O P Q R S T U V W X Y Z