Death Cab For Cutie - You Are A Tourist tab

|-------------------------------------------|
|------10-12-10-----------------------------|
|-7-11----------11-9-7-999999-111111111111--|
|-------------------------------------------|
|-------------------------------------------|
|-------------------------------------------| x 3 

|---------------------------------------------|
|------10-12-10-------------------------------|
|-7-11----------11-9-7-999999-7---------------|
|------------------------------111111111111-7-|
|---------------------------------------------|
|---------------------------------------------| x 1 

Verse
D,G
D,Eb,G (i think)
D G
D,Eb,G

|-------------------------------------------|
|------10-12-10-----------------------------|
|-7-11----------11-9-7-999999-111111111111--|
|-------------------------------------------|
|-------------------------------------------|
|-------------------------------------------| x 1 

|---------------------------------------------|
|------10-12-10-------------------------------|
|-7-11----------11-9-7-999999-7---------------|
|------------------------------111111111111-7-|
|---------------------------------------------|
|---------------------------------------------| x 1 

Verse
D,G
D,Eb,G (i think)
D G
D,Eb,G

Bridge

Eb F G x 4 


|-------------------------------------------|
|------10-12-10-----------------------------|
|-7-11----------11-9-7-999999-111111111111--|
|-------------------------------------------|
|-------------------------------------------|
|-------------------------------------------| x 3

|---------------------------------------------|
|------10-12-10-------------------------------|
|-7-11----------11-9-7-999999-7---------------|
|------------------------------111111111111-7-|
|---------------------------------------------|
|---------------------------------------------| x 1 

Outro

D,G, D  (picked)

Then alternate between the riff and the chords.

Enjoy!
Tap to rate this tab
 
# A B C D E F G H I J K L M N O P Q R S T U V W X Y Z