Song name
# A B C D E F G H I J K L M N O P Q R S T U V W X Y Z

Death Cab For Cutie - You Are A Tourist tab

E|---------5-7-5---0--------------------------------|
B|-------7-------7-----555555---77777777------------|
G|-----7-------------7--------7---------------------|
D|--------------------------------------------------|
A|--------------------------------------------------|
E|--------------------------------------------------|

E|---------5-7-5---0--------------------------------|
B|-------7-------7-----555555---777777-0000---------|
G|-----7-------------7--------7---------------------|
D|--------------------------------------------------|
A|--------------------------------------------------|
E|--------------------------------------------------|

E|---------5-7-5---0--------------------------------|
B|-------7-------7-----555555---77777777------------|
G|-----7-------------7--------7---------------------|
D|--------------------------------------------------|
A|--------------------------------------------------|
E|--------------------------------------------------|

E|---------5-7-5---0--------------------------------|
B|-------7-------7----555555------------------------|
G|-----7------------7--------7-666666---------------|
D|------------------------------------7-------------|
A|--------------------------------------------------|
E|--------------------------------------------------|
Tap to rate this tab
 
# A B C D E F G H I J K L M N O P Q R S T U V W X Y Z