Song name
# A B C D E F G H I J K L M N O P Q R S T U V W X Y Z

Death Cab For Cutie - You Are A Tourist tab

Artist:    Death Cab For Cutie
Song:      You Are A Tourist
Album:     Codes And Keys
Part:      Lead Guitar (Ben Gibbard)
Tuning:    eBGDAE (Standard)
Tabbed by: Jeremy Tan (fresh_liquid@hotmail.com)


----|--------------------------------------------------------------------------------------|
----|--------------------------------------------------------------------------------------|
----|------11---14b16b14---11------------------------------------11-11-11-11-11-11-11\-----|
-7/-|-12------------------------14---12---14-14-14-14-14-14-12-----------------------------|
----|--------------------------------------------------------------------------------------|
----|--------------------------------------------------------------------------------------|

    |--------------------------------------------------------------------------------------|
    |--------------------------------------------------------------------------------------|
    |------11---14b16b14---11------------------------------------11-11-11-11-11-11-4---4-4-|
    |-12------------------------14---12---14-14-14-14-14-14-12-----------------------------|
    |--------------------------------------------------------------------------------------|
    |--------------------------------------------------------------------------------------|

    |--------------------------------------------------------------------------------------|
    |--------------------------------------------------------------------------------------|
    |------11---14b16b14---11------------------------------------11-11-11-11-11-11-11\-----|
    |-12------------------------14---12---14-14-14-14-14-14-12-----------------------------|
    |--------------------------------------------------------------------------------------|
    |--------------------------------------------------------------------------------------|

    |--------------------------------------------------------------------------------------|-----|
    |--------------------------------------------------------------------------------------|-----|
    |------11---14b16b14---11--------------------------------------------------------------|-----|
    |-12------------------------14---12---14-14-14-14-14-14-14---11-11-11-11-11-11-9---8---|-/13-|
    |--------------------------------------------------------------------------------------|-----|
    |--------------------------------------------------------------------------------------|-----|


The second time he plays the lead, he only plays the last two parts.
The last time he plays it before the outro, he only plays the first two parts then 
slides up to the 8th fret on the G string to fade out.

This is exactly what Ben played in the live filming of the music video.
For any question or comments, leave a comment or email me.
Tap to rate this tab
 
# A B C D E F G H I J K L M N O P Q R S T U V W X Y Z