Song name
# A B C D E F G H I J K L M N O P Q R S T U V W X Y Z

Death Cab For Cutie - You Are A Tourist tab

This is what I believe the tab is after watching Ben play on the video.
His hand is around the 12th fret and stays pretty stationary other than the slide at the 
end of the riff.
Watch the video at youareatourist.com/

E------------------------------------------------------------------------|
B-------10h12p10---------------------------------------------------------|
G----11----------11--------------------------11-11-11-11-11-11-11--s-----|
D-12----------------14-12--14-14-14-14-14-12-----------------------------|
A------------------------------------------------------------------------|
E------------------------------------------------------------------------|

E------------------------------------------------------------------------|
B-------10h12p10---------------------------------------------------------|
G----11----------11------------------------------------------------------|
D-12----------------14-12--14-14-14-14-14-12-11-11-11-11-11--------------|
A-----------------------------------------------------------14-12--------|
E------------------------------------------------------------------------|
Tap to rate this tab
 
# A B C D E F G H I J K L M N O P Q R S T U V W X Y Z