Song name
# A B C D E F G H I J K L M N O P Q R S T U V W X Y Z

Death Cab For Cutie - You Are A Tourist tab

Tabbed by bookerpiano
e-mail: dean_booker@charter.net

I got the basic idea from the other tabs, listened to the song, and found the parts they missed.

|-------------------------------------------------------|
|-------10h12p10----------------------------------------|
|-----11-----------11--9--7---99999-7---1111111111--\7--|    (Part 1)
|---12--------------------------------------------------|
|-------------------------------------------------------|
|-------------------------------------------------------|
("11s" not 1s)
|---------------------------------------------------------|
|-------10h12p10------------------------------------------|
|-----11-----------11--9--7---99999-7---1111111111--------|   (Part 2)
|---12----------------------------------------------9-9---|
|---------------------------------------------------------|
|---------------------------------------------------------|

                       repeat Part 1

                           then

|-----------------------------------------------------------|
|-------10h12p10--------------------------------------------|
|-----11-----------11--9--7---99999-7----------------7/-11--|   (Part 3)
|---12----------------------------------11111111--9---------|
|-----------------------------------------------------------|
|-----------------------------------------------------------|

Rhythm can get a little tricky so listen to the song to get it down.
Hope you like it!

************************************
| /   slide up
| \   slide down
| h   hammer-on
| p   pull-off
************************************
Tap to rate this tab
 
# A B C D E F G H I J K L M N O P Q R S T U V W X Y Z