Song name
# A B C D E F G H I J K L M N O P Q R S T U V W X Y Z

Death Cab For Cutie - Cath tab

-----------------------------------------------------------------------------
			     Cath... - Death Cab for Cutie
-----------------------------------------------------------------------------

This is as close to what Ben plays that I've been able to tab. 
One or two differences here and there possibly, but it sounds 
and looks correct. For strumming patterns, listen to the song 
and watch live videos.

Tuning: Standard E

CAPO 2 (Notes relative to capo)

-----------------------------------------------------------------------------

Intro

e---------------------------------------------------------------------|
B-x-x-x-x-0-/0-0-0---------------------------------------3-0----------|
G-x-x-x-x-2-/4-4-4-p0-----------------0------------------0-0----------|
D-----------------------------0-h2-h4--------------------0-0----------|
A---------------------------3----------------------------x-x----------|
E----------------------------------------------------3-3-3-3----------|

e-------------------------------------------------------------|
B-0-/0-0-0---------------------------------------3-0----------|
G-2-/4-4-4-p0-----------------0------------------0-0----------|
D---------------------0-h2-h4--------------------4-0----------|
A-------------------3----------------------------x-x----------|
E--------------------------------------------3-3-3-3----------|

e------------------------------------------------2-----------|
B-0-/0-0-0---------------------------------------3-----------|
G-2-/4-4-4-p0-----------------0------------------2-----------|
D---------------------0-h2-h4--------------------0-----------|
A-------------------3----------------------------x-----------|
E--------------------------------------------3-3-3-----------|

e-----------------------|
B-5---3---2-------------|
G-0---0---0-------------|
D-5---0---2-------------|
A-7---5---4-------------|
E-----------------------|

Verse 1

e--0-0--0--0-0--0-0----------------|
B--0-0--0--0-0--0-0----------------|
G--0h9--0--0h7--2p0----------------|
D--0-0--0--0-0--0-0----------------|   x10 Vocals begin at bar 3
A--7-7--2--7-7--2-2----------------|
E--8-8--3--8-8--3-3----------------|

Chorus 1

e-----------------------------------------------------------------------|
B-5---3---2---------------------------------3------------------------3--|
G-0---0---0---------------------0-----------0----------------0-------0--|
D-5---0---2------------0-h2-h4--------------0-------0-h2-h4----------0--|  x2
A-7---5---4---------3-----------------------x----3-------------------x--|
E----------------------------------3----3-3-3-----------------3--3-3-3--|

Verse 2


e--0-0--0--0-0--0-0----------------|
B--0-0--0--0-0--0-0----------------|
G--0h9--0--0h7--2p0----------------|
D--0-0--0--0-0--0-0----------------|   x6 Vocals begin at bar 3
A--7-7--2--7-7--2-2----------------|
E--8-8--3--8-8--3-3----------------|

Bridge

Verse chords are played at a low/muted volume, while lead plays this riff

e-----------7-----5-----------------|
B--8--8-------8-----8----8--8-------|
G--------7-------7-----7-------7----|  x 8
D-----------------------------------|
A-----------------------------------|
E-----------------------------------|

Final Chorus

e-----------------------------------------------------------------------|
B-5---3---2-----------------------------3----------------------------3--|
G-0---0---0-----------------0-----------0----------------0-----------0--|
D-5---0---2----------0-h2-h4------------0---------0-h2-h4------------0--|  x2
A-7---5---4---------3-------------------x------3---------------------x--|
E------------------------------3----3-3-3-------------------3----3-3-3--|


E------------------------------------|
B-5---3---2------0---0---2-----------|
G-0---0---0------0---0---2-----------|
D-5---0---2------2---0---2-----------|
A-7---5---4------3---2---0-----------|
E------------------------------------|


e---------------------------------------------------------------------------|
B-5---3---2---------------------------------3----------------------------3--|
G-0---0---0---------------------0-----------0----------------0-----------0--|
D-5---0---2------------0-h2-h4--------------0-------0-h2-h4--------------0--|
A-7---5---4---------3-----------------------x----3-----------------------x--|
E----------------------------------3----3-3-3-------------------3----3-3-3--|


e-------------------------------------------------------------|
B-----------------------------0----------------------------0--|
G-----------------0-----------0----------------0-----------0--|
D--------0-h2-h4--------------0-------0-h2-h4--------------0--|
A-----3-----------------------x----3-----------------------x--|
E--------------------3----3-3-3-------------------3----3-3-3--|

e------------------------|
B-0---0---0-\-0----------|
G-9---7---6-\-2----------|
D-x---x---x-\-x----------|
A-7---5---4-\-0----------|
E------------------------|


| /  slide up
| \  slide down
| h  hammer-on
| p  pull-off
| ~  vibrato
| +  harmonic
| x  Mute note
=============================================================================
Tap to rate this tab
# A B C D E F G H I J K L M N O P Q R S T U V W X Y Z