Death Cab For Cutie - Crooked Teeth tab

Artist: Death Cab For Cutie
Song: Crooked Teeth (Solos)
Album: Plans
Tuning: Standard (Capo 1st fret)

Bass Line:

e |----------------------------------------------|
B |----------------------------------------------|
G |----------------------------------------------|
D |----------------------------------------------|
A |-------------------------------------0--0--0--| 	
E |-1--1--5--4--1--1--3--4---0--0--0--5----------|

e |----------------------------------------------|
B |----------------------------------------------|
G |----------------------------------------------|
D |----------------------------------------------|
A |-------------------7--5--6--6-----------------| 	
E |--1--1--7--5--6--6-------------1--3--4--4--4--|

After Bridge Guitar Solo:

e |------------------------------------------|
B |------------------------------------------|
G |--7p67p67--5--8--8--10--6--6--6--5--5---|
D |------------------------------------------|
A |------------------------------------------| 	
E |------------------------------------------|

e |------------------------------------------------------------|
B |--6--6--9--9--9--1313--13--13--13--16--16--16--16--16--16--|
G |------------------------------------------------------------|
D |------------------------------------------------------------|
A |------------------------------------------------------------| 	
E |------------------------------------------------------------|
Tap to rate this tab
 
# A B C D E F G H I J K L M N O P Q R S T U V W X Y Z