Song name
# A B C D E F G H I J K L M N O P Q R S T U V W X Y Z

Death Cab For Cutie - Stay Young Go Dancing tab

Death Cab For Cutie
Stay Young, Go Dancing
Codes And Keys

Capo: 2nd fret

Verse Riff
E-------0----0---0-0--0-0---------0----0---0-0--0-0--|
B----------0-0---0-0--0-0------------0-0---0-0--0-0--|
G--1--1------1---1-1--1-1----1--1------1---1-1--1-1--|
D--2--2------2---2-2--2-2----2--2------2---2-2--2-2--|
A--2--2------0---0-0--0-0----2--2------0---0-0--0-0--|
E--0--0------0h2-2-2--2-2----0--0------0h2-2-2--2-2--|

Chorus Riff
E----------4--4-4-4-4-4---0-0-0-0-4--4-4-4-4-4---4-4-4-4-0--0-0-0-0-0---0-0-0-|
B----------5--5-5-5-5-5---5-5-5-5-4--4-4-4-4-4---4-4-4-4-5--5-5-5-5-5---5-5-5-|
G----------6--6-6-6-6-6---6-6-6-6-4--4-4-4-4-4---4-4-4-4-6--6-6-6-6-6---6-6-6-|
D----------6--6-6-6-6-6---6-6-6-6-6--6-6-6-6-6---6-6-6-6-7--7-7-7-7-7---7-7-7-|
A----------4--4-4-4-4-4---4-4-4-4-6--6-6-6-6-6---6-6-6-6-0--0-0-0-0-0---0-0-0-|
E-0--2--4-------------------------4--4-4-4-4-4---4-4-4-4----------------------|

E-0-0--0-0-0-0-0---0-0-0-0--|
B-5-0--0-0-0-0-0---0-0-0-0--|
G-6-1--1-1-1-1-1---1-1-1-1--|
D-7-2--2-2-2-2-2---2-2-2-2--| x2
A-0-2--2-2-2-2-2---2-2-2-2--|
E---0--0-0-0-0-0---0-0-0-0--|

Solo
E---------------------------------------------------------------------------|
B--4h5p4---4----------------------------------------------------------------|
G--------6-----4-------4----------------------------------------------------|
D------------6-------6---4-----2-4--4/6--7--\1--2---4---1---2------1--------|
A--------------------------------------------------------------4-------2----|
E---------------------------------------------------------------------------|

Bridge
E--2---2-2-2-2-2---2-2-2-2-2---2-2-2-2-2---2-2-2-2-2---2-2-2-2-2---2-2-2-2-4-|
B--4---4-4-4-4-4---4-4-4-4-2---2-2-2-2-2---2-2-2-2-4---4-4-4-4-4---4-4-4-4-5-|
G--4---4-4-4-4-4---4-4-4-4-2---2-2-2-2-2---2-2-2-2-4---4-4-4-4-4---4-4-4-4-6-|
D--4---4-4-4-4-4---4-4-4-4-4---4-4-4-4-4---4-4-4-4-4---4-4-4-4-4---4-4-4-4-6-|
A--2---2-2-2-2-2---2-2-2-2-4---4-4-4-4-4---4-4-4-4-2---2-2-2-2-2---2-2-2-2-4-|
E--------------------------2---2-2-2-2-2---2-2-2-2---------------------------|

E---4-4-4-4-0---0-0-0-0-2---2-2-2-2-2---2-2-2-2-2---2-2-2-2-2---2-2-2-2-0---|
B---5-5-5-5-0---0-0-0-0-4---4-4-4-4-4---4-4-4-4-2---2-2-2-2-2---2-2-2-2-5---|
G---6-6-6-6-1---1-1-1-1-4---4-4-4-4-4---4-4-4-4-2---2-2-2-2-2---2-2-2-2-6---|
D---6-6-6-6-2---2-2-2-2-4---4-4-4-4-4---4-4-4-4-4---4-4-4-4-4---4-4-4-4-7---|
A---4-4-4-4-2---2-2-2-2-2---2-2-2-2-2---2-2-2-2-4---4-4-4-4-4---4-4-4-4-0---|
E-----------0---0-0-0-0-------------------------2---2-2-2-2-2---2-2-2-2-----|

E-0-0-0-0-0---0-0-0-0-0---0-0-0-0-0---0-0-0-0----|
B-5-5-5-5-5---5-5-5-5-5---5-5-5-5-5---5-5-5-5----|
G-6-6-6-6-6---6-6-6-6-6---6-6-6-6-6---6-6-6-6----|
D-7-7-7-7-7---7-7-7-7-7---7-7-7-7-7---7-7-7-7----|
A-0-0-0-0-0---0-0-0-0-0---0-0-0-0-0---0-0-0-0----|
E------------------------------------------------|

End on:
E---0---|
B---0---|
G---1---|
D---2---|
A---2---|
E---0---|

Song Structure:
Verse 1
Verse 2
Chorus
Solo
Bridge
Verse 3
Chorus 2
E Chord


Great song by a great band. This tab is completely accurate, I saw a video of Ben 
playing it just like this.  Rate/comment, thanks!
Tap to rate this tab
 
# A B C D E F G H I J K L M N O P Q R S T U V W X Y Z