Song name
# A B C D E F G H I J K L M N O P Q R S T U V W X Y Z

Death Cab For Cutie - Death Of An Interior Decorator tab

Death Cab for Cutie
"Death of an Interior Decorator"



intro/verse


 Bb           Eb Bb Bb5          Eb Eb Bb
e----------------------------------------|
b-3----------4--4-3--------------4--4--3-|
g-3----------3--3-3--3-----------3--3--3-|
d-3---0-3-0--1--1-3--3----0-3-0--1--1--3-|
a-1--1-1----------1--1---1-1-----------1-|
e---3-------------------3----------------|


chorus 1


F   D7


e--------------|
b--------------|
g-2--5---------|
d-3--4---------|
a-3--5---------|
e-1------------|


chorus 2


F   D7  Bb     Eb

[ Tab from: 
http://www.guitartabs.cc/tabs/d/death_cab_for_cutie/death_of_an_interior_decorator_tab.html ]
e--------------------|
b--------------------|
g-2--5---------------|
d-3--4---0-0----0-0--|
a-3--5--1-1-0--6-6-6-|
e-1------------------|


e---------|
b---------|
g-2--5----|
d-3--4----|
a-3--5----|
e-1-------|


bridge (the girls were all there)


e--------1-------------------|
b----1-3--3-----3--1--4------|
g--3--3-3--3--3--3--3--3-----|
d-1-1--1-1---0-0--0--0--0----|
a----------------------------|
e----------------------------|


and it felt just like falling in love again...


 Cm  Gm  F G
e------------|
b-4----------|
g-5--3--2--4-|
d-5--5--3--5-|
a-3--5--3--5-|
e----3--1--3-|


and it felt like falling in love...


 Cm  Gm  F Eb
e-----------------------|
b-4---------4--4--4--4--|
g-5--3--2----3--3--3--3-|
d-5--5--3-----1--1--1---|
a-3--5--3---------------|
e----3--1---------------|
Tap to rate this tab
 
# A B C D E F G H I J K L M N O P Q R S T U V W X Y Z