Song name
# A B C D E F G H I J K L M N O P Q R S T U V W X Y Z

Death Cab For Cutie - Title And Registration tab

Title and Registration  Death Cab for Cutie        **INTRO**

Tabbed by: Adam EL-Hayek (Pyro Arab)

Email:Adam.elhayek@yahoo.com

Tuning: Standard (eBGDAE)

**With Capo On 2nd fret**
**ADD 2 to each if you dont have a capo**




e|--------------------------------------------------------------------|
B|--------------------------------------------------------------------|
G|--------------------------------------------------------------------|
D|--------5------5---7---9---7---5---5--------------------------------|
A|-----7-------7---7---------------5----------------------------------|
E|--------------------------------------------------------------------|


e|--------------------------------------------------------------------|
B|--------------------------------------------------------------------|
G|--------------------------------------------------------------------|
D|--------5------5---7---9---7---5---5--------------------------------|
A|-----7-------7---7---------------5----------------------------------|
E|--------------------------------------------------------------------|


e|--------------------------------------------------------------------|
B|-----------0-----3--0---1--0----------------------------------------|
G|-----------0-------------------2--0---------------------------------|
D|-------2---2--------------------------------------------------------|
A|----3------3--------------------------------------------------------|
E|--------------------------------------------------------------------|



************************************

| /   slide up
| \   slide down
| h   hammer-on
| p   pull-off
| ~   vibrato
| +   harmonic
| x   Mute note
| b   Bend
| pb  Pre-bend
| br  Bend release
| pbr Pre-bend release
| brb Bend release bend

************************************
Tap to rate this tab
 
# A B C D E F G H I J K L M N O P Q R S T U V W X Y Z