Song name
# A B C D E F G H I J K L M N O P Q R S T U V W X Y Z

Death Cab For Cutie - Steadier Footing tab

Artist:  Death Cab for Cutie 
Song:   Steadier Footing
Album: Photo Album

by EllisD

standard  tuning

the note (0) is not played in the original song, but Chris Walla play it during the live.

e-------------------------------|
B-------------------------------|
G-----8------4-------1-----8----| x2
D------------4-------2----------|
A-----9--------------------9----|
E-----7------4------(0)----7----|         

e-------------------------------|
B--------------------5----8-----|
G-----8------9-------6----9-----|  
D-------------------------------|
A-----6------7-------4----7-----|
E------------0------------------|


e-------------------------------|
B-------------------------------|
G-----8------4-------1-----8----| x2
D------------4-------2----------|
A-----9--------------------9----|
E-----7------4------(0)----7----|

e-------------------------------|
B--------------------5----8-----|
G-----8------9-------6----9-----|  
D-------------------------------|
A-----6------7-------4----7-----|
E------------0------------------|



e-----------------------------------|
B-----------------------------------|
G-----------------------------------| x2
D--------13-------13---------11--9--|
A------11-------11---------9--------|
E-----9-----9-12-----12--7----------|


e-------------------------------|
B-------------------------------|
G-----8------4-------1-----8----| x2
D------------4-------2----------|
A-----9--------------------9----|
E-----7------4------(0)----7----|

e-----------------------------------|
B-----------------------------------|
G-----------------------------------| x2
D--------13-------13---------11--9--|
A------11-------11---------9--------|
E-----9-----9-12-----12--7----------|

By EllisD

Sorry for the bad english!
Tap to rate this tab
 
# A B C D E F G H I J K L M N O P Q R S T U V W X Y Z