Song name
# A B C D E F G H I J K L M N O P Q R S T U V W X Y Z

Death Cab For Cutie - Tiny Vessels tab

Capo II


Intro/Verse (x6)
----------------

e|--------------------|
B|------------0-------|
G|-----0--2-----------|
D|-2-2--2---2---------| x2
A|--------------------|
E|--------------------|

e|--------------------|
B|--------------------|
G|---------0----------|
D|-0-2-0-2---2-0-2----|
A|--------------------|
E|--------------------|

e|--------------------|
B|--------------------|
G|--------------------|
D|----2--2--2--2------|
A|--3--3--2--0--------|
E|--------------------|


Chorus (1:20) (x3)
-----------------

e|-----------------------------|
B|-----------------------------|
G|-55555555------66666666------|
D|-55555555-(x8)-66666666-(x8)-|
A|-33333333------44444444------|
E|-----------------------------|

e|-----------------------------|
B|-----------------------------|
G|-----------------------------|
D|-22222222------2-4~--5~--9~--|
A|-22222222-(x8)-2-4~--5~--9~--|
E|-00000000------0-2~--3~--7~--|


Post-Chorus (2:00)
------------------

e|----------------------|
B|----------------------|
G|-7777777------4-4~~---|
D|-7777777-(x7)-4-4~~---|
A|-5555555------2-2~~---|
E|----------------------|



Verse is repeated from this point to the end.



Thanks.
Tap to rate this tab
# A B C D E F G H I J K L M N O P Q R S T U V W X Y Z