Song name
# A B C D E F G H I J K L M N O P Q R S T U V W X Y Z

Death Cab For Cutie - Lack Of Color tab

  Capo 1st fret

e ------------------------------------------------------------------------|
b ------------------------------------------------------------------------|
g ------------------------------------------------------------------------|
d -----4---4---4---4---4---0---0---4---4---4---4---4---4---2---2----------|
a ------------------------------------------------------------------------|
D ---0---0---0---0---0---0---0---0---0---0---0---0---0---0---0---0--------|


e ------------------------------------------------------------------------|
b ---3---3---3---3---3---3---------------------------3---3----------------|
g ---------------------------2---2---0---0---0---0-----------2---2---4----|
d ------------------------------------------------------------------------|
a -----2---2---2---2---2---2---2---2---2---2---2---2---2---2---2---2---0--|
D ------------------------------------------------------------------------|
Tap to rate this tab
# A B C D E F G H I J K L M N O P Q R S T U V W X Y Z