Song name
# A B C D E F G H I J K L M N O P Q R S T U V W X Y Z

Death Cab For Cutie - I Will Follow You Into The Dark tab

Tabbed by:Trevor Crawford
Contact:t.crawford93@aol.com

Standard Tuning (EADGBe)
Capo at 5
whole song is finger picked

e|--0-----0-----0-----0-----1-----1-----------------0-----0-----0-----0--|
B|--1-1---1-1---1-1---1-1---1-1---1-1-----1-----1---1-1---1-1---1-1---1-1|
G|--2---2-2-----0---0-0-----2---2-2-----------------2---2-2-----0---0-0--|
D|--2-----2-----2-----2-----3-----3-----2-----0-----2-----2-----2-----2--|
A|0-0-----0---3-3-----3-----3-----3---3-----2-----0-0-----0---3-3-----3--|
E|--x-----x-----x-----x---1-1-----1-----------------x-----x-----x-----x--|

e|--3-----3-----3-----3-----0-----0-----0-----0-----0-----0-----0-----0--|
B|--3-3---3-3---3-3---3-3---1-1---1-1---1-1---1-1---0-0---0-0---0-0---0--|
G|--0---0-0-----0---0-0-----2---2-2-----0---0-0-----1---1-1-----1---1-1--|
D|--0-----0-----0-----0-----2-----2-----2-----2-----2-----2-----2-----2--|
A|--2-----2-----2-----2---0-0-----0---3-3-----3-----2-----2-----2-----2--|
E|3-3-----3---3-3-----3-----x-----x-----x-----x---0-0-----0---0-0-----0--|

e|--0-----0---0-----0---1-----1---1-1-----1--|
B|--1-1---1---1-1---1---1-1---1-1-1-1-1---1--|
G|--2---2-2---0---0-0---2---2-2---2-2---2-2--|
D|--2-----2---2-----3---3-----3---3-3-----3--|
A|0-0-----0---0-----0---3-----3---3-3-----3--|
E|--x-----x-3-3-----3-1-1-----1---1-1-----1--|

e|--0-----0-----0-----0-----0-----0-----0-----0-----1-----1-----1-----1---|
B|--1-1---1-1---1-1---1-1---1-1---1-1---1-1---1-1---1-1---1-1---1-1---1-1-|
G|--0---0-0-----0---0-0-----2---2-2-----2---2-2-----2---2-2-----2---2-2---|
D|--2-----2-----2-----2-----2-----2-----2-----2-----3-----3-----3-----3---|
A|3-3-----3---3-3-----3---0-0-----0---0-0-----0-----3-----3-----3-----3---|
E|--x-----x-----x-----x-----x-----x-----x-----x---1-1-----1---1-1-----1---|

e|--0-----0-----0-----0-----3-----3-----3-----3---|
B|--1-1---1-1---1-1---1-1---3-3---3-3---3-3---3-3-|
G|--2---2-2-----2---2-2-----0---0-0-----0---0-0---|
D|--2-----2-----2-----2-----0-----0-----0-----0---|
A|0-0-----0---0-0-----0-----2-----2-----2-----2---|
E|--x-----x-----x-----x---3-3-----3---3-3-----3---|

e|--0-----0-----0-----0-----0-----0-----0-----0-----1-----1-----1-----1---|
B|--1-1---1-1---1-1---1-1---1-1---1-1---1-1---1-1---1-1---1-1---1-1---1-1-|
G|--0---0-0-----0---0-0-----2---2-2-----2---2-2-----2---2-2-----2---2-2---|
D|--2-----2-----2-----2-----2-----2-----2-----2-----3-----3-----3-----3---|
A|3-3-----3---3-3-----3---0-0-----0---0-0-----0-----3-----3-----3-----3---|
E|--x-----x-----x-----x-----x-----x-----x-----x---1-1-----1---1-1-----1---|

e|--0-----0-----0-----0-----3-----3-----3-----3---|
B|--1-1---1-1---1-1---1-1---3-3---3-3---3-3---3-3-|
G|--2---2-2-----2---2-2-----0---0-0-----0---0-0---|
D|--2-----2-----2-----2-----0-----0-----0-----0---|
A|0-0-----0---0-0-----0-----2-----2-----2-----2---|
E|--x-----x-----x-----x---3-3-----3---3-3-----3---|

e|--0-----0-----0-----0-----1-----1-----------------0-----0-----0-----0--|
B|--1-1---1-1---1-1---1-1---1-1---1-1-----1-----1---1-1---1-1---1-1---1-1|
G|--2---2-2-----0---0-0-----2---2-2-----------------2---2-2-----0---0-0--|
D|--2-----2-----2-----2-----3-----3-----2-----0-----2-----2-----2-----2--|
A|0-0-----0---3-3-----3-----3-----3---3-----2-----0-0-----0---3-3-----3--|
E|--x-----x-----x-----x---1-1-----1-----------------x-----x-----x-----x--|

e|--3-----3-----3-----3-----0-----0-----0-----0-----0-----0-----0-----0--|
B|--3-3---3-3---3-3---3-3---1-1---1-1---1-1---1-1---0-0---0-0---0-0---0--|
G|--0---0-0-----0---0-0-----2---2-2-----0---0-0-----1---1-1-----1---1-1--|
D|--0-----0-----0-----0-----2-----2-----2-----2-----2-----2-----2-----2--|
A|--2-----2-----2-----2---0-0-----0---3-3-----3-----2-----2-----2-----2--|
E|3-3-----3---3-3-----3-----x-----x-----x-----x---0-0-----0---0-0-----0--|

e|--0-----0---0-----0---1-----1---1-1-----1--|
B|--1-1---1---1-1---1---1-1---1-1-1-1-1---1--|
G|--2---2-2---0---0-0---2---2-2---2-2---2-2--|
D|--2-----2---2-----3---3-----3---3-3-----3--|
A|0-0-----0---0-----0---3-----3---3-3-----3--|
E|--x-----x-3-3-----3-1-1-----1---1-1-----1--|

e|--0-----0-----0-----0-----0-----0-----0-----0-----1-----1-----1-----1---|
B|--1-1---1-1---1-1---1-1---1-1---1-1---1-1---1-1---1-1---1-1---1-1---1-1-|
G|--0---0-0-----0---0-0-----2---2-2-----2---2-2-----2---2-2-----2---2-2---|
D|--2-----2-----2-----2-----2-----2-----2-----2-----3-----3-----3-----3---|
A|3-3-----3---3-3-----3---0-0-----0---0-0-----0-----3-----3-----3-----3---|
E|--x-----x-----x-----x-----x-----x-----x-----x---1-1-----1---1-1-----1---|

e|--0-----0-----0-----0-----3-----3-----3-----3---|
B|--1-1---1-1---1-1---1-1---3-3---3-3---3-3---3-3-|
G|--2---2-2-----2---2-2-----0---0-0-----0---0-0---|
D|--2-----2-----2-----2-----0-----0-----0-----0---|
A|0-0-----0---0-0-----0-----2-----2-----2-----2---|
E|--x-----x-----x-----x---3-3-----3---3-3-----3---|

e|--0-----0-----0-----0-----0-----0-----0-----0-----1-----1-----1-----1---|
B|--1-1---1-1---1-1---1-1---1-1---1-1---1-1---1-1---1-1---1-1---1-1---1-1-|
G|--0---0-0-----0---0-0-----2---2-2-----2---2-2-----2---2-2-----2---2-2---|
D|--2-----2-----2-----2-----2-----2-----2-----2-----3-----3-----3-----3---|
A|3-3-----3---3-3-----3---0-0-----0---0-0-----0-----3-----3-----3-----3---|
E|--x-----x-----x-----x-----x-----x-----x-----x---1-1-----1---1-1-----1---|

e|--0-----0-----0-----0-----3-----3-----3-----3---|
B|--1-1---1-1---1-1---1-1---3-3---3-3---3-3---3-3-|
G|--2---2-2-----2---2-2-----0---0-0-----0---0-0---|
D|--2-----2-----2-----2-----0-----0-----0-----0---|
A|0-0-----0---0-0-----0-----2-----2-----2-----2---|
E|--x-----x-----x-----x---3-3-----3---3-3-----3---|

e|--0-----0-----0-----0-----1-----1-----------------0-----0-----0-----0--|
B|--1-1---1-1---1-1---1-1---1-1---1-1-----1-----1---1-1---1-1---1-1---1-1|
G|--2---2-2-----0---0-0-----2---2-2-----------------2---2-2-----0---0-0--|
D|--2-----2-----2-----2-----3-----3-----2-----0-----2-----2-----2-----2--|
A|0-0-----0---3-3-----3-----3-----3---3-----2-----0-0-----0---3-3-----3--|
E|--x-----x-----x-----x---1-1-----1-----------------x-----x-----x-----x--|

e|--3-----3-----3-----3-----0-----0-----0-----0-----0-----0-----0-----0--|
B|--3-3---3-3---3-3---3-3---1-1---1-1---1-1---1-1---0-0---0-0---0-0---0--|
G|--0---0-0-----0---0-0-----2---2-2-----0---0-0-----1---1-1-----1---1-1--|
D|--0-----0-----0-----0-----2-----2-----2-----2-----2-----2-----2-----2--|
A|--2-----2-----2-----2---0-0-----0---3-3-----3-----2-----2-----2-----2--|
E|3-3-----3---3-3-----3-----x-----x-----x-----x---0-0-----0---0-0-----0--|

e|--0-----0---0-----0---1-----1---1-1-----1--|
B|--1-1---1---1-1---1---1-1---1-1-1-1-1---1--|
G|--2---2-2---0---0-0---2---2-2---2-2---2-2--|
D|--2-----2---2-----3---3-----3---3-3-----3--|
A|0-0-----0---0-----0---3-----3---3-3-----3--|
E|--x-----x-3-3-----3-1-1-----1---1-1-----1--|
Tap to rate this tab
 
# A B C D E F G H I J K L M N O P Q R S T U V W X Y Z