Song name
# A B C D E F G H I J K L M N O P Q R S T U V W X Y Z

Death Cab For Cutie - Pictures In An Exhibition tab

This is the correct tab for this awesome song:)
No capo
Normal tuning

Verse 1
B            A                E
I think you caught me on the downslide, downturn
B            A           E               G
I was busy writing with a pen and paper thin dream
B            A                   E
And all your plastic people with plastic hearts and smiles
B            A               E            G   G
They had the worst intentions all along after all
 G    G    G
All, All, All


Strumming Chords 1
B E X 4


Verse 2
B            A             E                         B
The royal castle holds the mellow drama kings and queens
                A             E                    G
And all their dazzling children, theyíre so regal, so clean
B                A             E
With pristine fingertips, they wash behind their ears
B                A                 E        G
Then let their hair down Ďtil the audiences leave
  G    G       G    G
Leave, Leave, Leave Leave


Chorus
G#m  B   F#      E
Iím definitely shaking
G#m  B       F#    E
The silence isnít breaking
G#m  B          F#        E
Backwashed and stranded memories
G#m  B        F#          E
Of something I thought could be


Riff:
e-------------------------------------------------|
b-------------------------------------------------|
g-11-11-11-8-8-8-11-11-11-9-9-8-8-8---------------|
d-------------------------------------------------|  X 3
a-9--9--9--6-6-6-9- 9--9--7-7-6-6-6---------------|
e-------------------------------------------------|
then
e-------------------------------------------------|
b-------------------------------------------------|
g-11-11-11-8-8-8--666\888/666/444-4---------------|
d-------------------------------------------------|  X 1
a-9--9--9--6-6-6--444\666/444/222-2---------------|
e-------------------------------------------------|

Chorus
G#m  B   F#      E
Iím definitely shaking
G#m  B       F#    E
The silence isnít breaking
G#m  B          F#        E
Backwashed and stranded memories
G#m  B        F#          E
Of something I thought could be

Final Chorus:
Guitar 1

F#   D#m   E     D#m
Iím definitely shaking

F#   D#m   E     D#m
Iím definitely shaking

F#   D#m   E     D#m
Iím definitely shaking

F#   D#m   E     D#m
Iím definitely shaking

Guitar 2
e-------------------------------------------------|
b-------------------------------------------------|
g-11-11-11-8-8-8--666\888/666/444-4---------------|
d-------------------------------------------------|  X 4
a-9--9--9--6-6-6--444\666/444/222-2---------------|
e-------------------------------------------------|


Ending:
e-------------------------------------------------|
b-------------------------------------------------|
g-11-11-11-8-8-8-11-11-11-9-9-8-8-8---------------|
d-------------------------------------------------|  X 2
a-9--9--9--6-6-6-9- 9--9--7-7-6-6-6---------------|
e-------------------------------------------------|

e-------------------------------------------------|
b-------------------------------------------------|
g-11-11-11-8-8-8-11-11-11-131313\161616-----------|
d-------------------------------------------------|  X 1
a-9--9--9--6-6-6-9--9--9--111111\141414-----------|
e-------------------------------------------------|

e-------------------------------------------------|
b-------------------------------------------------|
g-11-11-11-8-8-8--666\888/666/444\66\8------------|
d-------------------------------------------------|  X 1
a-9--9--9--6-6-6--444\666/444/222\44\6------------|
e-------------------------------------------------|


The end:) enjoy!
Tap to rate this tab
# A B C D E F G H I J K L M N O P Q R S T U V W X Y Z