Song name
# A B C D E F G H I J K L M N O P Q R S T U V W X Y Z

Death Cab For Cutie - Amputations tab

Guitar 1

E|---------------------------------------------------------------------|
B|---------------------------------------------------------------------|
G|------9------9------9------9------9------9-----9-----9-----9---------|
D|--11-----11-----11-----10-----10-----10-----9-----9-----9-----6------| x 8
A|---------------------------------------------------------------------|
E|---------------------------------------------------------------------|

Repeat twice before guitar 2 comes in

Alternatively

E|-----------------------------------------------------------|
B|-----5-----5-----5-----5-----5-----5-----5-----5-----5-----|
G|--6-----6-----6-----5-----5-----5-----4-----4-----4-----1--|
D|-----------------------------------------------------------|
A|-----------------------------------------------------------|
E|-----------------------------------------------------------|


Guitar 2

E|----------------|
B|-----10--9--12--|
G|--6-------------|x5
D|----------------|
A|----------------|
E|----------------|

After fifth time play:

E|----------------|
B|-----10--9--5---|
G|--6-------------|
D|----------------|
A|----------------|
E|----------------|
Tap to rate this tab
# A B C D E F G H I J K L M N O P Q R S T U V W X Y Z