Guitaretab - guitar tabs
Song name
# A B C D E F G H I J K L M N O P Q R S T U V W X Y Z

Death Cab For Cutie - Coney Island tab

This is just a version of the song I've put up,
let me know if you have anything you'd rather change, but it's pretty much
open to interpretation. Cus it's a song. But yeah, this isn't the same key as the song,
just put a capo on it, otherwise its a pain. it may have a little strange fingering
at the distance between fingers, I know, but thats just how I play.

Beginning riff whatnot:

There are two ways I've played it with the 7th fret on the A(E) and then also
changing that for the lower octave to give it a little more bass, and I have both 
to show you.

E-----3-----3---------------------|
B---0-----0-----0-1-----0-----0---|
G-------0-----0-----0-----0-------|
D---------------------0-----5---2-|
A-----------------3-----7-----5---|
E-3-------------------------------|

E-----3-----3---------------------|
B---0-----0-----0-1-----0-----0---|
G-------0-----0-----0-------------|
D---------------------0---5-----2-|
A-----------------3---------7-5---|
E-3---------------------0---------|


chorus whatnot:

The chords are in all likely different than what the song has, but I've done what I like
fit for an acoustic version to help fill up the space a little bit. I tend to just mute
notes that don't fit on the fuller c chord during the little instrumental part and also 
the higher changing notes if that helps you any.
[ Tab from: http://www.guitaretab.com/d/death-cab-for-cutie/46454.html ]
everything was closed at coney iiislaaand
    Em      G          C      Cmaj7
E-0-0-0-0-3-3-3-3-0-0-0-0-0-0-0-0-|
B-0-0-0-0-0-0-0-0-1-1-1-1-1-1-0-0-|
G-0-0-0-0-0-0-0-0-0-0-0-0-0-0-0-0-|
D-2-2-2-2-0-0-0-0-2-2-2-2-2-2-2-2-|
A-2-2-2-m-0-0-0-0-3-3-3-3-3-3-3-3-|
E-0-0-0-2-3-3-3-3-3-3-3-3-3-3-3-3-|
and I could not help from smiiliiiin'
    Em      G          C      Cmaj7
E-0-0-0-0-3-3-3-3-0-0-0-0-0-0-0-0-|
B-0-0-0-0-0-0-0-0-1-1-1-1-1-1-0-0-|
G-0-0-0-0-0-0-0-0-0-0-0-0-0-0-0-0-|
D-2-2-2-2-0-0-0-0-2-2-2-2-2-2-2-2-|
A-2-2-2-m-0-0-0-0-3-3-3-3-3-3-3-3-|
E-0-0-0-2-3-3-3-3-3-3-3-3-3-3-3-3-|
Brooklyn will fill in the beach eventually
    Em      G          C      Cmaj7
E-0-0-0-0-3-3-3-3-0-0-0-0-0-0-0-0-|
B-0-0-0-0-0-0-0-0-1-1-1-1-1-1-0-0-|
G-0-0-0-0-0-0-0-0-0-0-0-0-0-0-0-0-|
D-2-2-2-2-0-0-0-0-2-2-2-2-2-2-2-2-|
A-2-2-2-m-0-0-0-0-3-3-3-3-3-3-3-3-|
E-0-0-0-2-3-3-3-3-3-3-3-3-3-3-3-3-|
and everyone will go except meeee
    Em      G          C      Cmaj7
E-0-0-0-0-3-3-3-3-----0-----0-----|
B-0-0-0-0-0-0-0-0-----1-----0-----|
G-0-0-0-0-0-0-0-0-----0-----0-----|
D-2-2-2-2-0-0-0-0-2-2-2-2-2-2-2-2-|
A-2-2-2-m-0-0-0-0-3-3-3-3-3-3-3-3-|
E-0-0-0-2-3-3-3-3-3-3-3-3-3-3-3-3-|


(Little instrumental part leads back to first riff on the first chorus but kinda messes
and fades the second time through till the end)


E-0-----0-----0-2-----3-----3-----------|
B-1-----3-----0-0---0-----0-----0-1-----|
G-0-----0-----0-0-------0-----0-----0---|  etc etc etc...
D-2-2-2-2-2-2-2-2---------------------0-|
A-3-3-3-m-m-m-m-m-----------------3-----|
E-3-3-3-3-3-3-3-3-3---------------------|

I havent really ever written a tab before, so the m means mute it, by the way. If you
any questions or need a tab for any other deathcab songs feel free to send me a note anytime.

Jon
Related for Coney Island tab
Coney Island chords by Death Cab For Cutie