Song name
# A B C D E F G H I J K L M N O P Q R S T U V W X Y Z

Death Cab For Cutie - 405 tab

intro

e ---5-------5-------7-------10----------3-------3-------3-------3-|
b -------3-------3-------5-------8---1-------1-------1-------1-----|
g -----------------------------------------------------------------|
d -----------------------------------------------------------------|
a -5---5---5---5---7---7---10--10--3---3---3---3---3---3---3---3---|
e -----------------------------------------------------------------|

verse

e ---0---0---0---0-------------------0---2---3---0---0---0---0---0-|
b -------------------0---0---0---0---------------------------------|
g -----------------------------------------------------------------|
d -----------------------------------------------------------------|
a -3---3---3---3-------------------3---0---0---0---3---3---3---3---|
e -----------------3---3---3---3-----------------------------------|

e -------------------0---0---0---0--------------------------------|
b ---0---2---2---2-------------------0---0---0---0----------------|
g ----------------------------------------------------------------|
d ---------------------------------5---4---5---9------------------|
a -0---0---0---0---3---3---3---3----------------------------------|
e ----------------------------------------------------------------|

Chorus
(You keep twisting the truth...)
    E           A
e---0-----------0-------------------------------------------------|
b---0-----------2-----------5--5--3--3--0--0--3--3----------------|
g---0-----------2-------------------------------------------------|
d---2-----------2-------------------------------------------------|
a---2-----------0----------3--3--3--3--3--3--3--3-----------------|
e---0-------------------------------------------------------------|

Thanks to other tab for intro and verse.
tabbed by Jason Moon
Tap to rate this tab
 
# A B C D E F G H I J K L M N O P Q R S T U V W X Y Z