Song name
# A B C D E F G H I J K L M N O P Q R S T U V W X Y Z

Death Cab For Cutie - Steadier Footing tab

Death Cab for Cutie - Steadier Footing
by: Jakub Racek

I've posted this twice before with mistakes but this one is is flawless. 

Tuning: standard capo 4

e-------------------------------|
B-----0------0-------0-----0----|
G-----0--------------------0----| x2
D------------2-------2----------|
A--------------------3----------|
E-----3------0-------------3----|

e-------------------------------|
B-----0------1-------1----8-----|
G-----0------0-------2----9-----|  
D-------------------------------|
A-----2------3-------0----7-----|
E-------------------------------|

e-------------------------------|
B-----0------0-------0-----0----|
G-----0--------------------0----| x2
D------------2-------2----------|
A--------------------3----------|
E-----3------0-------------3----|

e-------------------------------|
B-----0------1-------1----8-----|
G-----0------0-------2----9-----|  
D-------------------------------|
A-----2------3-------0----7-----|
E-------------------------------|

e-------------------------------|
B---------0-------0-------------|
G-------------------------2-0---| x2
D-------2---2---2---2----0------|
A-----0-------3-----------------|
E---------------------3---------|

e-------------------------------|
B-----0------0-------0-----0----|
G-----0--------------------0----| x2
D------------2-------2----------|
A--------------------3----------|
E-----3------0-------------3----|

e-------------------------------|
B---------0-------0-------------|
G-------------------------2-0---| x2
D-------2---2---2---2----0------|
A-----0-------3-----------------|
E---------------------3---------|
Tap to rate this tab
# A B C D E F G H I J K L M N O P Q R S T U V W X Y Z