Song name
# A B C D E F G H I J K L M N O P Q R S T U V W X Y Z

Death Cab For Cutie - Photobooth tab

Tuning: Standard (EADGBe)
Guitar: Electric (clean, pick)

Tab:

Verse

e|------------------------------------------------|
B|-------------------------------------0--0-------|
G|-------------------------------4--4--------0--0-|
D|-------------0--------0--2--2-------------------|
A|-------5-----------5----------------------------|
E|-3--3-----3-----3-------------------------------|

e|------------------------------------------------|
B|-------------0--0-------------------------------|
G|-------2--2--------0--0--------------0--------0-|
D|-0--0--------------------------4-----------4----|
S|-------------------------3--3-----3-----3-------|
E|------------------------------------------------|

x2

Chorus
(I'm not quite sure about the second part; it's
too hard to hear).

e|------------------------------------------------|
B|-------------------------------------------3----|
G|-------0-----------0-----------------0----------|
D|-------------2-----------------4----------------|
A|-0--0-----0-----0-----0--3--3-----3-----3-----3-|
E|------------------------------------------------|

e|------------------------------------------------|
B|-------0----------------------------------------|
G|-------------------2-----------------0--------0-|
D|-2--2-----2--0--0-----0--------4-----------4----|
A|-------------------------3--3-----3-----3-------|
E|------------------------------------------------|

e|------------------------------------------------|
B|-------------------------------------------3----|
G|-------0-----------0-----------------0----------|
D|-------------2-----------------4----------------|
A|-0--0-----0-----0-----0--3--3-----3-----3-----3-|
E|------------------------------------------------|

Post-Chorus
(Not sure about the last part, again; hard to make
out).

e|------------------------------------------------|
B|-------0--0--------0--0--------0--0--------0--0-|
G|-------------0--0-------------------------------|
D|-2--2--------------------0--0-------------------|
A|-------------------------------------3--3-------| x3
E|------------------------------------------------|

e|------------------------------------------------|
B|-------0--0--------0--0-------------------------|
G|-------------0--0-----------------------------0-|
D|-2--2--------------------------4--4--------4----|
A|-------------------------5--5--------5--5-------|
E|------------------------------------------------|

Outro

e|------------------------------------------------|
B|-------0--0--------0--0--------0--0--------0----|
G|-------------0--0-------------------------------|
D|-2--2--------------------0--0-------------------|
A|-------------------------------------3--3-------|
E|------------------------------------------------|


Form:

Verse x2
Chorus
Post-Chorus

Verse x3
Chorus
Post-Chorus

Verse
Chorus x2
Post-Chorus (just first part x4 instead of x3)

Outro
Tap to rate this tab
 
# A B C D E F G H I J K L M N O P Q R S T U V W X Y Z