Song name
# A B C D E F G H I J K L M N O P Q R S T U V W X Y Z

Death Cab For Cutie - I Was A Kaleidoscope tab

"I Was A Kaleidoscope" by Death Cab For Cutie
Album:The Photo Album
Tabbed by Alec Rosales   (thebluechannnel@gmail.com)





Intro/verse
 
e --------------------------------------------------------------------|
b ----------------(3)-------------------------------------------------|
g -2---------------2-------------------------------7---------------2--|
d -2-------------0-0---------0-4---2-----0---0-----7---------------2--|(x3)
a -0-------0-2-4---------0-4-----0---------4---0-4/5-----4-2-4-2---0--|
E -------0-------------------------------------------------------4----|
 


When he begins to sing, there's a second guitar that do this for 4 times:
e ----------------------------------------------------------------------|
b ---7-7-7-7-7-7-7-7-9-9-9-9-9-9-9-9------------------------------------|
g --------------------------------------9-9-9-9-9-9-9-9--7-7-7-7-7-7-7-7|
d ----------------------------------------------------------------------|
a ----------------------------------------------------------------------|
E ----------------------------------------------------------------------|


 
and they were grouped...
e --------------------------------------------------------------------|
b --------------------------------------------------------------------|
g -2---------------2-------------------------------7---------------2--|
d -2-------------0-0---------0-4---2-----0---0-----7-------------2-2--|
a -0-------0-2-4---------0-4-----0---------4---0-4/5-----4-4-----0-0--|
E -------0------------------------------------------------------------|
 



cars on slippery...
e --------------------------------------------------------------------|
b --------------------------------------------------------------------|
g ----------------2-------------------------------7----------------2--|
d --------------0-0---------0-4---2-----0---0-----7----------------2--|
a --------0-2-4---------0-4-----0---------4---0-4/5-----4-2-4-2----0--|
E ------0--------------------------------------------------------4----|
 



to feel it soaking...                              i took to your
apartment
e --------------------------------------------------------------------|
b --------------------------------------------------------------------|
g -------------2-----------------------------------------6-6----------|
d -----------0-0---------0-4---2-----0---0-----7---7-7---7-7---7-7--7-|
a -----0-2-4---------0-4-----0---------4---0-4/5---5-5---5-5---5-5--5-|
E ---0----------------------------------------------------------------|
 
 
verse 1 (x1)
then                                   ...to address as all your lips
moved
e --------------------------------------------------------------------|
b --------------------------------------------------------------------|
g 2------------2-----------------------------------------6-6----------|
d 2----------0-0---------0-4---2-----0---0-----7---7-7---7-7---7-7--7-|
a 0----0-2-4---------0-4-----0---------4---0-4/5---5-5---5-5---5-5--5-|
E ---0----------------------------------------------------------------|
 
 (Iterlude)

then 
         ...this ain't working anymore       
solo
e --------------------------------------------------------------------|
b --------------------------------------------------------------------|
g -2---------------2--------------------1-1--/2-2-------4-4--1--------|
d -2-------------0-0---------0-4---2-2-------------4-4----------------|
a -0-------0-2-4---------0-4-----0------------------------------------|
E -------0------------------------------------------------------------|
 
e --------------------------------------------------------------------|
b --------------------------------------------------------------------|
g -2---------------2------------------------------------------------2-|
d -2-------------0-0---------0-4---2-2--0-0---0---------------------2-|
a -0-------0-2-4---------0-4-----0----------4---0-4-5-5-4-4-2-4-2---0-|
E -------0--------------------------------------------------------4---|
 

they got their mothers...
e --------------------------------------------------------------------|
b --------------------------------------------------------------------|
g --7-7----7-7----6-6----7-7-7-7--4-4----6-6-6-4--4-4----6-6-6-4------|
d --7-7----9-9----7-7----9-9-9-7--4-4----4-4-4-4--4-4----4-4-4-4------|(x2)
a --5-5----5-5----5-5----5-5-5-5--2-2----2-2-2-2--2-2----2-2-2-2------|
E --------------------------------------------------------------------|
 

 ...and i got........left there,too
e ------------------------|
b --2-2-2-2-2-2-2-2---/7--|
g --2-2-2-2-2-2-2-2---/7--|
d --4-4-4-4-4-4-4-4---/7--|
a --4-4-4-4-4-4-4-4---/5--|
E --2-2-2-2-2-2-2-2-------|
 

e ---------------------------------------------------------------------|
b ---------------------------------------------------------------------|
g -2---------------2-------------------------------------------------2-|
d -2-------------0-0---------0-4---2-2--0-0----0---------------------2-|
a -0-------0-2-4---------0-4-----0-----------4---0-4-5-5-4-4-2-4-2---0-|
E -------0---------------------------------------------------------4---|
 
i put on my overcoat...
e ---------------------------------------------------------------------|
b ---------------------------------------------------------------------|
g ---------------2-------------------------------7---------------2-----|
d -------------0-0---------0-4---2-----0---0-----7---------------2-----|
a -------0-2-4---------0-4-----0---------4---0-4/5-----4-2-4-2---0-----|
E -----0-------------------------------------------------------4-------|
 
and they were grouped...
e -------------------------------------------------
b -------------------------------------------------
g ---------------2---------------------------------
d -------------0-0--------0-4---2----0---0---------
a -------0-2-4--------0-4-----0--------4---0-4/5---
E -----0-------------------------------------------
 
 ...from me   to me
e -----------------------------------------------|
b -----------------------------------------------|
g -----------------------------------------------|
d --------------------6-6--7-7--9-9--11-11--14\0-|
a ----2-2/7---4-4/9------------------------------|
E -----------------------------------------------|
Tap to rate this tab
 
# A B C D E F G H I J K L M N O P Q R S T U V W X Y Z