Song name
# A B C D E F G H I J K L M N O P Q R S T U V W X Y Z

Death Cab For Cutie - Champagne From A Paper Cup tab

Death Cab for Cutie
Champagne from a Paper Cup

This is a corrected copy of another version. (S)he had mostly the right notes but they
weren't in the right spots. So I fixed it up as best as I can. Comment if otherwise.

Intro
|----0------0----|
|------7------7--|
|--0------0------| x4
|----------------|
|----------------|       
|----------------|         

Verse   
"Think I'm drunk enough to"
|----0------0-------0-----0----|
|------7------7-------7-----7--|
|--0------0-------0-----0------|   
|------------------------------|
|------------------------------|       
|------------------------------|

"Drive you home now"
|--5h7---5h7---5h7----|
|------5-----5-----5--|
|---------------------|   
|---------------------|
|---------------------|               
|---------------------|

"I'll keep my mouth kept"
|----0------0-------0-----0----|
|------7------7-------7-----7--|
|--0------0-------0-----0------|   
|------------------------------|
|------------------------------|       
|------------------------------|

"Under lock and key"     
|--5h7---5h7---5h7----|
|------5-----5-----5--|
|---------------------|   
|---------------------|
|---------------------|               
|---------------------|

"That's rusted firm, no lie"
|----0------0-------0-----0----|
|------7------7-------7-----7--|
|--0------0-------0-----0------|   
|------------------------------|
|------------------------------|       
|------------------------------|

|--5h7---5h7---5h7----|
|------5-----5-----5--|
|---------------------|   
|---------------------|
|---------------------|               
|---------------------|

"Cause all these conversations wind"
|----0------0-------0-----0-----5h7---5h7---5h7----|
|------7------7-------7-----7-------5-----5-----5--|
|--0------0-------0-----0--------------------------|
|--------------------------------------------------|
|--------------------------------------------------|       
|--------------------------------------------------|

"On and on"
|--5h7---5h7---5h7----|
|------5-----5-----5--|
|---------------------| x3
|---------------------|
|---------------------|              
|---------------------|

Chorus 
"Drinking champagne from a paper cup..."
|--7-7-78-78--7-7-78-78--0---0---0-----------|
|--8-8-88-88--8-8-88-88---7---7--------------|
|-----------------------0---0---0--3333-5555-| x4
|----------------------------------3333-5555-|
|----------------------------------1111-3333-|              
|--------------------------------------------|

Then play verse again
Tap to rate this tab
# A B C D E F G H I J K L M N O P Q R S T U V W X Y Z