Song name
# A B C D E F G H I J K L M N O P Q R S T U V W X Y Z

Death Cab For Cutie - Army Corps Of Architects tab

Help us improve GuitareTab! Take a short survey!
-------------------------------------------------------------------------------
		   THE ARMY CORPS OF ACHITECTS - Death Cab for Cutie
-------------------------------------------------------------------------------
Tabbed by: brease
Email: brease@gmx.de
Tuning: standard

Intro // Verse I (6x)
e|----0-----------------------------------------------------------|
B|----------------------------------------------------------------|
G|------------------------------------0--------------0------------|
D|-0-2------------------------------2---2----------2---2----------|
A|-3-------------2-----2-3--------3--------------3----------------|
E|-------------3------3---------1--------------1------------------|

leaving the central state from shallow ground
home in the valley but the rent's paid south
you said the urn was half full when i said it was half empty
with what was left of our fair city

Bridge (2x)
e|-------0--------------------------------------------------------|
B|---------------------0------------------------------------------|
G|----0-----0-------0-----0-----------0--------------0------------|
D|--2---2-2---2---0---0-0---0-------2---2----------2---2----------|
A|-3-------------2----------------3--------------3----------------|
E|------------------------------1--------------1------------------|

Verse II (4x)
e|----0-----------------------------------------------------------|
B|----------------------------------------------------------------|
G|------------------------------------0--------------0------------|
D|-0-2------------------------------2---2----------2---2----------|
A|-3-------------2-----2-3--------3--------------3----------------|
E|-------------3------3---------1--------------1------------------|

call in the army corps of architects
to flatten the skyline and begin again
*I knew the years would move quickly
 but never quite as fast as this
 so bring the discrepancies, I'll pour the drinks

Bridge (4x)
e|-------0--------------------------------------------------------|
B|---------------------0------------------------------------------|
G|----0-----0-------0-----0-----------0--------------0------------|
D|--2---2-2---2---0---0-0---0-------2---2----------2---2----------|
A|-3-------------2----------------3--------------3----------------|
E|------------------------------1--------------1------------------|

* (fade out)
e|----------------------------------------------------------------|
B|----------------------------------------------------------------|
G|----------------------------------------------------------------|
D|-2---2---2---2---0---0---0---0---0---0---0---0---3---3---3---3--|
A|---3---3---3---3---2---2---2---2---3---3---3---3----------------|
E|---------------------------------------------------1---1---1----|
Related for Army Corps Of Architects tab