Song name
# A B C D E F G H I J K L M N O P Q R S T U V W X Y Z

Death Cab For Cutie - What Sarah Said tab

Help us improve GuitareTab! Take a short survey!
Taken from the video from mikesmai on youtube
Thanks a lot man! Anyway if you watched it an just need to look at the tabs without 
to pause and unpause the video here
are:

Piano Intro:
E:-----12-------12----| (2x)
B:---8--------8-------|
G:10-------10---------|
D:--------------------|
A:--------------------|
E:--------------------|

E:----10------10------| (2x)
B:--8-------8---------|
G:9-------9-----------|
D:--------------------|
A:--------------------|
E:--------------------|

E:----10------10------| (2x)
B:--8-------8---------|
G:9-------9-----------|
D:--------------------|
A:--------------------|
E:--------------------|

E:----8------8--------| (2x)
B:--8------8----------|
G:7------7------------|
D:--------------------|
A:--------------------|
E:--------------------|

E:----8------7--------| (2x)
B:--8------8----------|
G:5------5------------|
D:--------------------|
A:--------------------|
E:--------------------|

Guitar Intro:

E:--------------------| (2x)
B:----5-----5---------|
G:--0-----0-----------|
D:3-----3-------------|
A:--------------------|
E:--------------------|

E:--------------------| (2x)
B:----3-----3---------|
G:--0-----0-----------|
D:2-----2-------------|
A:--------------------|
E:--------------------|

E:--------------------| (2x)
B:----1-----1---------|
G:--0-----0-----------|
D:0-----0-------------|
A:--------------------|
E:--------------------|

E:--------------------| (2x)
B:----1-----1---------|
G:--0-----0-----------|
D:--------------------|
A:3-----3-------------|
E:--------------------|

E:--------------------| (2x)
B:----5-----5---------|
G:--0-----0-----------|
D:3-----3-------------|
A:--------------------|
E:--------------------|

E:--------------------| (2x)
B:----3-----3---------|
G:--0-----0-----------|
D:2-----2-------------|
A:--------------------|
E:--------------------|

E:--------------------| (2x)
B:----1-----1---------|
G:--0-----0-----------|
D:0-----0-------------|
A:--------------------|
E:--------------------|

E:--------------------| (2x)
B:----1-----0---------|
G:--0-----0-----------|
D:--------------------|
A:3-----3-------------|
E:--------------------|

Verse:
  F  E  D  C
E:3--3--3--3----------|
B:1--1--1--1----------|
G:2--0--0--0----------|
D:3--2--0--2----------|
A:---------3----------|
E:--------------------|

Bridge:
  Dm F  Am Em
E:1--1--0--0----------|
B:2--1--1--0----------|
G:3--2--2--0----------|
D:0--3--2--2----------|
A:---3--0--2----------|
E:---1-----0----------|

End:

E:1-------------------|
B:2---9-7-8-6-5-------|
G:3-------------------|
D:0-------------------|
A:--------------------|
E:--------------------|

Interlude:

E:3---3---------------|
B:1---1-1-1-1-1.......|
G:2---0---------------|
D:3---2---------------|
A:--------------------|
E:--------------------|
Related for What Sarah Said tab