Song name
# A B C D E F G H I J K L M N O P Q R S T U V W X Y Z

Death Cab For Cutie - Your Heart Is An Empty Room tab

main guitar part is simply G then E-minor shapes w/Capo 5th fret

2nd guitar (actual fret numbers, not capo-altered):
|---T78------------------|
|-8----------------------|
|--7---------------------|
|------------------------|
|------------------------|
|------------------------|
1st one
|-----W-----------------|
|-8-5-------------------|
|-----------------------|
|-----------------------|
|-----------------------|
|-----------------------|
2nd one
|-----T-8----------------|
|-8-5-----8--------------|
|------------------------|
|------------------------|
|------------------------|
|------------------------|
3rd
|-----W------T-----8--------|
|-8-5----8-5---8-5----------|
|---------------------------|
|---------------------------|
|---------------------------|
|---------------------------|
4th
|-----T-8----------------|
|-8-5-----8--------------|
|------------------------|
|------------------------|
|------------------------|
|------------------------|

Chorus:
|-----W----5-7-8---------|
|-8-5----------------888-|
|------------------------|
|------------------------|
|------------------------|
|------------------------|
and all you see...

|-----W----5-7-8-------------|
|-8-5---------------[8]--<-2-|nd time only to get back into chorus
|----------------------------|
|----------------------------|
|----------------------------|
|----------------------------|
and out on the street...

|-5--------------------|
|-----5----------------|
|----------7-----------|
|----------------------|
|--(whole notes)-------|
|----------------------|

|--------------------|
|--------------------|
|--------------------|
|---5--5----5--5-----|
|--5--5----5--5------|
|-5--5--555--5--55---|
right before "the flames"... a different guitar sound

|-W--------------------|
|----------------------|
|----------------------|
|----------------------|
|----------------------|
|----------------------|
the flames...


KEY: (because I tab differently)
T- 10th fret
W- 12th fret
Tap to rate this tab
# A B C D E F G H I J K L M N O P Q R S T U V W X Y Z