Song name
# A B C D E F G H I J K L M N O P Q R S T U V W X Y Z

Death Cab For Cutie - Bend To Squares tab

Help us improve GuitareTab! Take a short survey!
Standard Tuning (Eadgbe)

intro/verse:
e|--------------------|---------------------------|
b|--------------------|---------------------------|
g|----7---7---7------ |---------------------------|
d|---0-0-0-0-0-0-0-0-|----0---0---0--0--0-0-0-----|
a|--9---9---9---9-9-- |---9-9-9-9-9-9 9-10-9-7----|
E|--------------------|--7---7---7----------------|

pre-chorus:
e|--0-|    played during "wings down so that you could move..."
b|-10-|
g|--0-|
d|--0-|
a|--X-|
E|--7-|

chorus:
e|-------------------------------|-------------------|
b|-------------------------------|-------------------|
g|-------------------------------|-------------------|
d|-------------------------------|-------------------|
a|--999-101010-999-101010-9109-|--555-444-555-4------|
E|--777--7-7-7- 777--7-7-7-7-77-|--333-333-333-3-----|
       for  -  wards   for  - wards...

bridge:
e|--------------------------|     "ooh, what a way to cut lengthwise."
b|--------------------------|
g|--7-----------------------|
d|--7-x8--9-----5-----------|
a|--5-----9-x3--5-x4--------|
E|--------7-----3-----------|

tab authored by Brian Shepherd.  b.shepherd83@hotmail.com for questions/comments.
Related for Bend To Squares tab