Song name
# A B C D E F G H I J K L M N O P Q R S T U V W X Y Z

Death Cab For Cutie - Song For Kelly Huckaby tab

ok intro, standard tuning...i think thats all =S

i am fully aware that death cab has 2 guitarists and the two guitarists play notes which
sound sooooo alike its not even funny, but u can pick up the minor diffs. what i tabbed
was what the dominant notes were

--------5-----5-----5---|-------5-----5-----5---|-------5-----5-----5---|
----------------------8-|---------------------6-|---------------------8-|
--1/6-7---6-7---6-7-----|-1/6-7---6-7---6-7-----|-1/6-7---6-7---6-7-----|
------------------------|-----------------------|-----------------------|
------------------------|-----------------------|-----------------------|
------------------------|-----------------------|-----------------------|

------------------------|-----------------------|-----------------------|
------------------------|-----------------------|-----------------------|
--6-7-9-10-9-7-6-7-9-10-|-----------------------|-----------------------|
------------------------|-----------------------|-----------------------|
------------------------|-----------------------|-----------------------|
------------------------|-----------------------|-----------------------|

its not the exact octave, maybe one up, but it sounds about right, u can try playing
this pattern starting on the A (5th) string and playing it on the fifth fret...which
ever suits u best.
Tap to rate this tab
# A B C D E F G H I J K L M N O P Q R S T U V W X Y Z