Song name
# A B C D E F G H I J K L M N O P Q R S T U V W X Y Z

Death Cab For Cutie - Little Fury Bugs tab

Tabbed by: Vincent
Email: v_oude_lansink@hotmail.com

Tuning:

Intro

D|--------------------------------------------------------------\
A|--------6-----7--6--7--6--------------------------------------|
E|--0--4-----4--------------------------------------------------|

Verse

D|--------------------------------------------------------------\
A|--------6-----7--6--7--6-----x2--------6666-------6622--------|
E|--0--4-----4---------------------------7777-------5544--------|

Chorus

e|-------------------------------------------------------|
B|----------------------------------0---0----------------|
G|----------------------------------4---4----------------|
D|-------------------------------------------------------|
A|----666666---44411-11-11--666666--666666---------------|
E|----777777---2220 -0 -0 --777777--777777---------------|

e|-------------------------------------------------------|
B|-------------------------------------------------------|
G|-------------------------------------------------------|
D|-------------------------------------------------------|
A|----666666---44411-11-11--666666--666644---------------|
E|----777777---2220 -0 -0 --777777--777555---------------|

Verse

Chorus

e|-------------------------------------------------------|
B|----------------------------------0---0----------------|
G|----------------------------------4---4----------------|
D|-----------------------------------------------x3------|
A|----666666---44411-11-11--666666--666666---------------|
E|----777777---2220 -0 -0 --777777--777777---------------|

e|-------------------------------------------------------|
B|-------------------------------------------------------|
G|-------------------------------------------------------|
D|-------------------------------------------------------|
A|----666666---44411-11-11--666666--666644---------------|
E|----777777---2220 -0 -0 --777777--777555---------------|

Outro is same as intro
Tap to rate this tab
 
# A B C D E F G H I J K L M N O P Q R S T U V W X Y Z