Song name
# A B C D E F G H I J K L M N O P Q R S T U V W X Y Z

Death Cab For Cutie - Employment Pages tab

Help us improve GuitareTab! Take a short survey!
-------------------------------------------------------------------------------
			     THE EMPLOYMENT PAGES - Death Cab for Cutie
-------------------------------------------------------------------------------
Tabbed by: A.J. Conner
Email: ajconner123@gmail.com

Tuning: Standard

Let me know what you think. :)

| s  slide
| #  tremolo picking

  Main Riff
e|---------------------------------------------------------------------------|
B|---5--5--5--5--------------------------------------------------------------|
G|--7--7--6--6---6--6--6--6--------------------------------------------------|
D|--------------7--7--5--5---------------------------------------------------|
A|---------------------------------------------------------------------------|
E|---------------------------------------------------------------------------|
   "We spread out, and occupy the cracks..."
  
 Chorus: 
e|-------------------0------------------------0------------------------------|
B|--------------------0--7---------------------0-----------------------------|
G|---6--------6--------6------6--------6--------6s11s6-6---------------------|
D|--0--0--4-4---4s7----------0--0--4-4---4s7---------------------------------|
A|---------------------------------------------------------------------------|
E|---------------------------------------------------------------------------|
"It's so appropriate, the way we amplify the sound..."
  
Post-chorus riff - no vocals
e|---------------------------------------------------------------------------|
B|---------5---------5--------------5--------5-------------------------------|
G|---------6---------6s11s6-6-------6--------6s11s6-6------------------------|
D|----4s6-------4s6------------4s6-------4s6---------------------------------|
A|--0---------0--------------0---------0-------------------------------------|
E|---------------------------------------------------------------------------|

  Post-chorus riff cont.
e|---------------------------------------------------------------------------|
B|---0---0-------2----2-------------5---------5------------------------------|
G|----6----6-6--2---2---2-----------6---------6s11s6-6-----------------------|
D|-----0----0-----0----0-------4s6-------4s6---------------------------------|
A|---------------------------0---------0-------------------------------------|
E|---------------------------------------------------------------------------|

  Bridge: play the 2nd half of the post-chorus riff. ("You were gone, and 
  I was home...")
   Then:
e|---------------------------------------------------------------------------|
B|---5--5--5--5--5--5--5--5--5--5--5--5--5--5--5--5--------------------------|
G|--8--8--8--8--7--7--7--7--8--8--8--8--7--7--7--7---------------------------|
D|---------------------------------------------------------------------------|
A|---------------------------------------------------------------------------|
E|---------------------------------------------------------------------------|
  "Calling around, but nothing was found worthwhile."
  
Interlude:
e|---------------------------------------------------------------------------|
B|---------5----7---7----7---------------------------------------------------|
G|---------6------5---5----5-------------------------------------------------|
D|----4s6--------------------------------------------------------------------|
A|--0------------------------------------------------------------------------|
E|---------------------------------------------------------------------------|

Song order:
Main riff -4x
Chorus riff -2x
Post-chorus riff 
Main riff -4x
Chorus riff -2x
Post chorus
Bridge
Interlude -4x
Main riff -4x
END.


===============================================================================
Related for Employment Pages tab