Song name
# A B C D E F G H I J K L M N O P Q R S T U V W X Y Z

Death Cab For Cutie - Thats Incentive tab

Death Cab For Cutie - That's Incentive

Tabbed by: sirpatrick3

Tuning: half-step down

e|----7-----7-----7-----7------12------16-----7-----7------|
B|-9-----9-----7-----7-----11------11------5-----4---------|
G|---------------------------------------------------------|
D|---------------------------------------------------------|
A|---------------------------------------------------------|
E|---------------------------------------------------------|

e|----7-----9-----7-----7------12------16-----7-----7------|
B|-9-----7-----7-----7-----11------11------5-----4---------|
G|---------------------------------------------------------|
D|---------------------------------------------------------|
A|---------------------------------------------------------|
E|---------------------------------------------------------|

e|------9-----9-----7-----7------12------16-----7-----7----|
B|-7h9-----7-----7-----7-----11------11------5-----4-------|
G|---------------------------------------------------------|
D|---------------------------------------------------------|
A|---------------------------------------------------------|
E|---------------------------------------------------------|

e|----7-----9-----7-----7------12------16-----7-----7------|
B|-9-----7-----7-----7-----11------11------5-----4---------|
G|---------------------------------------------------------|
D|---------------------------------------------------------|
A|---------------------------------------------------------|
E|---------------------------------------------------------|

e|-----------------------------------------------------------------|
B|-----------------------------------------------------------------|
G|-----------------------------------------------------------------|
D|-14--14--13--13--14--14--13--13--14--14--13--13--14--14--13--13--|
A|-14--14--14--14--14--14--14--14--14--14--14--14--14--14--14--14--|
E|-12--12--12--12--12--12--12--14--12--12--12--12--12--12--12--12--|

e|-----------------------------------------------------------------|
B|-----------------------------------------------------------------|
G|-13--13--13--13--13--13--13--13--15--15--15--15--16--16--16--16--|
D|-13--13--13--13--13--13--13--13--15--15--15--15--16--16--16--16--|
A|-11--11--11--11--11--11--11--11--13--13--13--13--14--14--14--14--|
E|-----------------------------------------------------------------|

e|-----------------------------------------------------------------|
B|-----------------------------------------------------------------|
G|-----------------------------------------------------------------|
D|-14--14--14--14--14--14--14--14--14--14--14--14--14--14--14--14--|
A|-14--14--14--14--14--14--14--14--14--14--14--14--14--14--14--14--|
E|-12--12--12--12--12--12--12--12--12--12--12--12--12--12--12--12--|

e|-----------------------------------------------------------------|
B|-----------------------------------------------------------------|
G|-13--13--13--13--13--13--13--13--15--15--15--15--16--16--16--16--|
D|-13--13--13--13--13--13--13--13--15--15--15--15--16--16--16--16--|
A|-11--11--11--11--11--11--11--11--13--13--13--13--14--14--14--14--|
E|-----------------------------------------------------------------|

e|-----------------------------------------------------|
B|-----------------------------------------------------|
G|-----------------------------------------------------|
D|-------x--x--11--13--9--8--------x--x--11--13--9--8--|
A|-6--6--x--x--9---11--7--6--6--6--x--x--9---11--7--6--|
E|-4--4----------------------4--4----------------------|

e|-----------------------------------------------------------------|
B|-----------------------------------------------------------------|
G|-----------------------------------------------------------------|
D|-14--14--13--13--14--14--13--13--14--14--13--13--14--14--13--13--|
A|-14--14--14--14--14--14--14--14--14--14--14--14--14--14--14--14--|
E|-12--12--12--12--12--12--12--14--12--12--12--12--12--12--12--12--|
 
e|-----------------------------------------------------|
B|-----------------------------------------------------|
G|-------------------------------------16--16--16--16--|
D|-9--9--9--9--9--9--9--9--9--9--9--9--16--16--16--16--|
A|-9--9--9--9--9--9--9--9--9--9--9--9--14--14--14--14--|
E|-7--7--7--7--7--7--7--7--6--6--6--6------------------|
Tap to rate this tab
 
# A B C D E F G H I J K L M N O P Q R S T U V W X Y Z