Song name
# A B C D E F G H I J K L M N O P Q R S T U V W X Y Z

Death Do Us Part - Dinasaur Song tab

NAME: DINASAUR SONG
BAND: DEATH DO US PART
TUNING: CGCFAD
B= BEND STRING

VERSE
D---------------------------------------------------|
A---------------------------------------------------|
F---------------------------------------------------|
C----7-6-4-6-6---7-6-4-2-4---7-6-4-6-6---7-6-4-2-4--| X2
G--0-----------0-----------0-----------0------------|
C--0-----------0-----------0-----------0------------|
CHORUS
D----------------------------------|
A----------------------------------|
F----------------------------------|
C----------------------------------|
G--0--3-5--0--3-7--0--3-5--0--3-7--|
C--0--3-5--0--3-7--0--3-5--0--3-7--|
VERSE
D---------------------------------------------------|
A---------------------------------------------------|
F---------------------------------------------------|
C----7-6-4-6-6---7-6-4-2-4---7-6-4-6-6---7-6-4-2-4--| X2
G--0-----------0-----------0-----------0------------|
C--0-----------0-----------0-----------0------------|
CHORUS
D------------------|
A------------------|
F------------------|
C------------------|
G--0--3-5--0--3-7--|
C--0--3-5--0--3-7--|
SOLO
D-------------------------------------|
A-------------------------------------|
F----------------------5---5--5-B7-7--|
C--7-7-7-7-7-5-5-5-5-7---7---7--------|
G-------------------------------------|
C-------------------------------------|
VERSE
D---------------------------------------------------|
A---------------------------------------------------|
F---------------------------------------------------|
C----7-6-4-6-6---7-6-4-2-4---7-6-4-6-6---7-6-4-2-4--| X2
G--0-----------0-----------0-----------0------------|
C--0-----------0-----------0-----------0------------|
OUTRO
D-------------------------------------|
A-------------------------------------|
F-------------------------------------|
C-------------------------------------|
G--0--3-5--0--3-7--0--3-5--0--3-7--0--| LAST NOTE RINGS
C--0--3-5--0--3-7--0--3-5--0--3-7--0--|
Tap to rate this tab
 
# A B C D E F G H I J K L M N O P Q R S T U V W X Y Z